  0
SECTION
  2
HEADER
  9
$ACADVER
  1
AC1015
  9
$ACADMAINTVER
 70
     6
  9
$DWGCODEPAGE
  3
ANSI_1254
  9
$INSBASE
 10
0.0
 20
0.0
 30
0.0
  9
$EXTMIN
 10
0.0
 20
0.0
 30
0.0
  9
$EXTMAX
 10
279.4
 20
215.9
 30
0.0
  9
$LIMMIN
 10
0.0
 20
0.0
  9
$LIMMAX
 10
279.4
 20
215.9
  9
$ORTHOMODE
 70
     0
  9
$REGENMODE
 70
     1
  9
$FILLMODE
 70
     1
  9
$QTEXTMODE
 70
     0
  9
$MIRRTEXT
 70
     1
  9
$LTSCALE
 40
1.0
  9
$ATTMODE
 70
     1
  9
$TEXTSIZE
 40
3.5
  9
$TRACEWID
 40
1.0
  9
$TEXTSTYLE
  7
Standard
  9
$CLAYER
  8
0
  9
$CELTYPE
  6
ByLayer
  9
$CECOLOR
 62
   256
  9
$CELTSCALE
 40
1.0
  9
$DISPSILH
 70
     0
  9
$DIMSCALE
 40
1.0
  9
$DIMASZ
 40
3.5
  9
$DIMEXO
 40
1.0
  9
$DIMDLI
 40
3.75
  9
$DIMRND
 40
0.0
  9
$DIMDLE
 40
0.0
  9
$DIMEXE
 40
1.0
  9
$DIMTP
 40
0.0
  9
$DIMTM
 40
0.0
  9
$DIMTXT
 40
3.5
  9
$DIMCEN
 40
2.5
  9
$DIMTSZ
 40
0.0
  9
$DIMTOL
 70
     0
  9
$DIMLIM
 70
     0
  9
$DIMTIH
 70
     1
  9
$DIMTOH
 70
     1
  9
$DIMSE1
 70
     0
  9
$DIMSE2
 70
     0
  9
$DIMTAD
 70
     1
  9
$DIMZIN
 70
     0
  9
$DIMBLK
  1

  9
$DIMASO
 70
     1
  9
$DIMSHO
 70
     1
  9
$DIMPOST
  1

  9
$DIMAPOST
  1

  9
$DIMALT
 70
     0
  9
$DIMALTD
 70
     3
  9
$DIMALTF
 40
0.0393700787
  9
$DIMLFAC
 40
1.0
  9
$DIMTOFL
 70
     1
  9
$DIMTVP
 40
0.0
  9
$DIMTIX
 70
     0
  9
$DIMSOXD
 70
     0
  9
$DIMSAH
 70
     0
  9
$DIMBLK1
  1

  9
$DIMBLK2
  1

  9
$DIMSTYLE
  2
ISO-25
  9
$DIMCLRD
 70
     0
  9
$DIMCLRE
 70
     0
  9
$DIMCLRT
 70
     0
  9
$DIMTFAC
 40
1.0
  9
$DIMGAP
 40
1.524
  9
$DIMJUST
 70
     0
  9
$DIMSD1
 70
     0
  9
$DIMSD2
 70
     0
  9
$DIMTOLJ
 70
     0
  9
$DIMTZIN
 70
     0
  9
$DIMALTZ
 70
     0
  9
$DIMALTTZ
 70
     0
  9
$DIMUPT
 70
     0
  9
$DIMDEC
 70
     2
  9
$DIMTDEC
 70
     2
  9
$DIMALTU
 70
     2
  9
$DIMALTTD
 70
     3
  9
$DIMTXSTY
  7
Standard
  9
$DIMAUNIT
 70
     0
  9
$DIMADEC
 70
     2
  9
$DIMALTRND
 40
0.0
  9
$DIMAZIN
 70
     0
  9
$DIMDSEP
 70
    44
  9
$DIMATFIT
 70
     3
  9
$DIMFRAC
 70
     0
  9
$DIMLDRBLK
  1

  9
$DIMLUNIT
 70
     2
  9
$DIMLWD
 70
    -2
  9
$DIMLWE
 70
    -2
  9
$DIMTMOVE
 70
     0
  9
$LUNITS
 70
     2
  9
$LUPREC
 70
     2
  9
$SKETCHINC
 40
1.0
  9
$FILLETRAD
 40
10.0
  9
$AUNITS
 70
     0
  9
$AUPREC
 70
     2
  9
$MENU
  1
.
  9
$ELEVATION
 40
0.0
  9
$PELEVATION
 40
0.0
  9
$THICKNESS
 40
0.0
  9
$LIMCHECK
 70
     0
  9
$CHAMFERA
 40
0.0
  9
$CHAMFERB
 40
0.0
  9
$CHAMFERC
 40
0.0
  9
$CHAMFERD
 40
0.0
  9
$SKPOLY
 70
     0
  9
$TDCREATE
 40
2459741.607878009
  9
$TDUCREATE
 40
2459741.482878009
  9
$TDUPDATE
 40
2459741.607878195
  9
$TDUUPDATE
 40
2459741.482878195
  9
$TDINDWG
 40
0.0000000116
  9
$TDUSRTIMER
 40
0.0000000116
  9
$USRTIMER
 70
     1
  9
$ANGBASE
 50
0.0
  9
$ANGDIR
 70
     0
  9
$PDMODE
 70
     0
  9
$PDSIZE
 40
-1.0
  9
$PLINEWID
 40
0.0
  9
$SPLFRAME
 70
     0
  9
$SPLINETYPE
 70
     6
  9
$SPLINESEGS
 70
     8
  9
$HANDSEED
  5
104
  9
$SURFTAB1
 70
     6
  9
$SURFTAB2
 70
     6
  9
$SURFTYPE
 70
     6
  9
$SURFU
 70
     6
  9
$SURFV
 70
     6
  9
$UCSBASE
  2

  9
$UCSNAME
  2

  9
$UCSORG
 10
0.0
 20
0.0
 30
0.0
  9
$UCSXDIR
 10
1.0
 20
0.0
 30
0.0
  9
$UCSYDIR
 10
0.0
 20
1.0
 30
0.0
  9
$UCSORTHOREF
  2

  9
$UCSORTHOVIEW
 70
     0
  9
$UCSORGTOP
 10
0.0
 20
0.0
 30
0.0
  9
$UCSORGBOTTOM
 10
0.0
 20
0.0
 30
0.0
  9
$UCSORGLEFT
 10
0.0
 20
0.0
 30
0.0
  9
$UCSORGRIGHT
 10
0.0
 20
0.0
 30
0.0
  9
$UCSORGFRONT
 10
0.0
 20
0.0
 30
0.0
  9
$UCSORGBACK
 10
0.0
 20
0.0
 30
0.0
  9
$PUCSBASE
  2

  9
$PUCSNAME
  2

  9
$PUCSORG
 10
0.0
 20
0.0
 30
0.0
  9
$PUCSXDIR
 10
1.0
 20
0.0
 30
0.0
  9
$PUCSYDIR
 10
0.0
 20
1.0
 30
0.0
  9
$PUCSORTHOREF
  2

  9
$PUCSORTHOVIEW
 70
     0
  9
$PUCSORGTOP
 10
0.0
 20
0.0
 30
0.0
  9
$PUCSORGBOTTOM
 10
0.0
 20
0.0
 30
0.0
  9
$PUCSORGLEFT
 10
0.0
 20
0.0
 30
0.0
  9
$PUCSORGRIGHT
 10
0.0
 20
0.0
 30
0.0
  9
$PUCSORGFRONT
 10
0.0
 20
0.0
 30
0.0
  9
$PUCSORGBACK
 10
0.0
 20
0.0
 30
0.0
  9
$USERI1
 70
     0
  9
$USERI2
 70
     0
  9
$USERI3
 70
     0
  9
$USERI4
 70
     0
  9
$USERI5
 70
     0
  9
$USERR1
 40
0.0
  9
$USERR2
 40
0.0
  9
$USERR3
 40
0.0
  9
$USERR4
 40
0.0
  9
$USERR5
 40
0.0
  9
$WORLDVIEW
 70
     1
  9
$SHADEDGE
 70
     3
  9
$SHADEDIF
 70
    70
  9
$TILEMODE
 70
     1
  9
$MAXACTVP
 70
    64
  9
$PINSBASE
 10
0.0
 20
0.0
 30
0.0
  9
$PLIMCHECK
 70
     0
  9
$PEXTMIN
 10
1.0000000000E+20
 20
1.0000000000E+20
 30
1.0000000000E+20
  9
$PEXTMAX
 10
-1.0000000000E+20
 20
-1.0000000000E+20
 30
-1.0000000000E+20
  9
$PLIMMIN
 10
0.0
 20
0.0
  9
$PLIMMAX
 10
420.0
 20
297.0
  9
$UNITMODE
 70
     0
  9
$VISRETAIN
 70
     1
  9
$PLINEGEN
 70
     0
  9
$PSLTSCALE
 70
     1
  9
$TREEDEPTH
 70
  3020
  9
$CMLSTYLE
  2
Standard
  9
$CMLJUST
 70
     0
  9
$CMLSCALE
 40
20.0
  9
$PROXYGRAPHICS
 70
     1
  9
$MEASUREMENT
 70
     1
  9
$CELWEIGHT
370
    -1
  9
$ENDCAPS
280
     0
  9
$JOINSTYLE
280
     0
  9
$LWDISPLAY
290
     1
  9
$INSUNITS
 70
     4
  9
$HYPERLINKBASE
  1

  9
$STYLESHEET
  1

  9
$XEDIT
290
     1
  9
$CEPSNTYPE
380
     0
  9
$PSTYLEMODE
290
     1
  9
$FINGERPRINTGUID
  2
{d2e93554-931a-4f5b-8a93-d6f95b67d75a}
  9
$VERSIONGUID
  2
{FAEB1C32-E019-11D5-929B-00C0DF256EC4}
  9
$EXTNAMES
290
     1
  9
$PSVPSCALE
 40
0.0
  9
$OLESTARTUP
290
     0
  0
ENDSEC
  0
SECTION
  2
CLASSES
  0
CLASS
  1
ACDBDICTIONARYWDFLT
  2
AcDbDictionaryWithDefault
  3
ObjectDBX Classes
 90
        0
280
     0
281
     0
  0
CLASS
  1
VISUALSTYLE
  2
AcDbVisualStyle
  3
ObjectDBX Classes
 90
     4095
280
     0
281
     0
  0
CLASS
  1
MATERIAL
  2
AcDbMaterial
  3
ObjectDBX Classes
 90
     1153
280
     0
281
     0
  0
CLASS
  1
SCALE
  2
AcDbScale
  3
ObjectDBX Classes
 90
     1153
280
     0
281
     0
  0
CLASS
  1
TABLESTYLE
  2
AcDbTableStyle
  3
ObjectDBX Classes
 90
     4095
280
     0
281
     0
  0
CLASS
  1
MLEADERSTYLE
  2
AcDbMLeaderStyle
  3
ACDB_MLEADERSTYLE_CLASS
 90
     4095
280
     0
281
     0
  0
CLASS
  1
SUN
  2
AcDbSun
  3
SCENEOE
 90
     1153
280
     0
281
     0
  0
CLASS
  1
ACDBPLACEHOLDER
  2
AcDbPlaceHolder
  3
ObjectDBX Classes
 90
        0
280
     0
281
     0
  0
CLASS
  1
LAYOUT
  2
AcDbLayout
  3
ObjectDBX Classes
 90
        0
280
     0
281
     0
  0
ENDSEC
  0
SECTION
  2
TABLES
  0
TABLE
  2
VPORT
  5
8
330
0
100
AcDbSymbolTable
 70
     1
  0
VPORT
  5
29
330
8
100
AcDbSymbolTableRecord
100
AcDbViewportTableRecord
  2
*Active
 70
     0
 10
0.0
 20
0.0
 11
1.0
 21
1.0
 12
139.7
 22
107.95
 13
0.0
 23
0.0
 14
10.0
 24
10.0
 15
10.0
 25
10.0
 16
0.0
 26
0.0
 36
1.0
 17
0.0
 27
0.0
 37
0.0
 40
215.9
 41
1.2941176471
 42
50.0
 43
0.0
 44
0.0
 50
0.0
 51
0.0
 71
     0
 72
  2000
 73
     1
 74
     3
 75
     0
 76
     0
 77
     0
 78
     0
281
     0
 65
     1
110
0.0
120
0.0
130
0.0
111
1.0
121
0.0
131
0.0
112
0.0
122
1.0
132
0.0
 79
     0
146
0.0
  0
ENDTAB
  0
TABLE
  2
LTYPE
  5
5
330
0
100
AcDbSymbolTable
 70
     6
  0
LTYPE
  5
14
330
5
100
AcDbSymbolTableRecord
100
AcDbLinetypeTableRecord
  2
ByBlock
 70
     0
  3

 72
    65
 73
     0
 40
0.0
  0
LTYPE
  5
15
330
5
100
AcDbSymbolTableRecord
100
AcDbLinetypeTableRecord
  2
ByLayer
 70
     0
  3

 72
    65
 73
     0
 40
0.0
  0
LTYPE
  5
16
330
5
100
AcDbSymbolTableRecord
100
AcDbLinetypeTableRecord
  2
Continuous
 70
     0
  3
Solid line
 72
    65
 73
     0
 40
0.0
  0
LTYPE
  5
6E
330
5
100
AcDbSymbolTableRecord
100
AcDbLinetypeTableRecord
  2
HIDDEN
 70
     0
  3
Hidden __ __ __ __ __ __ __ __ __ __ __ __ __ __
 72
    65
 73
     2
 40
1.905
 49
1.27
 74
     0
 49
-0.635
 74
     0
  0
LTYPE
  5
6F
330
5
100
AcDbSymbolTableRecord
100
AcDbLinetypeTableRecord
  2
PHANTOM
 70
     0
  3
Phantom ______  __  __  ______  __  __  ______
 72
    65
 73
     6
 40
12.7
 49
6.35
 74
     0
 49
-1.27
 74
     0
 49
1.27
 74
     0
 49
-1.27
 74
     0
 49
1.27
 74
     0
 49
-1.27
 74
     0
  0
LTYPE
  5
70
330
5
100
AcDbSymbolTableRecord
100
AcDbLinetypeTableRecord
  2
CENTER
 70
     0
  3
Center ____ _ ____ _ ____ _ ____ _ ____ _ ____
 72
    65
 73
     4
 40
10.16
 49
6.35
 74
     0
 49
-1.27
 74
     0
 49
1.27
 74
     0
 49
-1.27
 74
     0
  0
LTYPE
  5
71
330
5
100
AcDbSymbolTableRecord
100
AcDbLinetypeTableRecord
  2
CENTERX2
 70
     0
  3
Center (2x) ________  __  ________  __  _____
 72
    65
 73
     4
 40
20.32
 49
12.7
 74
     0
 49
-2.54
 74
     0
 49
2.54
 74
     0
 49
-2.54
 74
     0
  0
LTYPE
  5
72
330
5
100
AcDbSymbolTableRecord
100
AcDbLinetypeTableRecord
  2
DOT2
 70
     0
  3
Dot (.5x) ........................................
 72
    65
 73
     2
 40
0.635
 49
0.0
 74
     0
 49
-0.635
 74
     0
  0
ENDTAB
  0
TABLE
  2
LAYER
  5
2
330
0
100
AcDbSymbolTable
 70
    17
  0
LAYER
  5
10
330
2
100
AcDbSymbolTableRecord
100
AcDbLayerTableRecord
  2
0
 70
     0
 62
     7
  6
Continuous
370
    -3
390
F
  0
LAYER
  5
73
330
2
100
AcDbSymbolTableRecord
100
AcDbLayerTableRecord
  2
FORMAT
 70
     0
 62
     7
  6
Continuous
370
    -3
390
F
  0
LAYER
  5
74
330
2
100
AcDbSymbolTableRecord
100
AcDbLayerTableRecord
  2
YARDIMCI_GEOMETRI
 70
     0
 62
    -6
  6
Continuous
290
     0
370
    -3
390
F
  0
LAYER
  5
75
330
2
100
AcDbSymbolTableRecord
100
AcDbLayerTableRecord
  2
SAYFA_CERCEVESI
 70
     0
 62
     7
  6
Continuous
370
    25
390
F
  0
LAYER
  5
76
330
2
100
AcDbSymbolTableRecord
100
AcDbLayerTableRecord
  2
ANTET
 70
     0
 62
     7
  6
Continuous
370
    -3
390
F
  0
LAYER
  5
77
330
2
100
AcDbSymbolTableRecord
100
AcDbLayerTableRecord
  2
OLCU
 70
     0
 62
   150
  6
Continuous
370
    -3
390
F
  0
LAYER
  5
78
330
2
100
AcDbSymbolTableRecord
100
AcDbLayerTableRecord
  2
METIN
 70
     0
 62
    96
  6
Continuous
370
    -3
390
F
  0
LAYER
  5
79
330
2
100
AcDbSymbolTableRecord
100
AcDbLayerTableRecord
  2
BALON
 70
     0
 62
     5
  6
Continuous
370
    -3
390
F
  0
LAYER
  5
7A
330
2
100
AcDbSymbolTableRecord
100
AcDbLayerTableRecord
  2
VURGU
 70
     0
 62
     7
  6
Continuous
370
    -3
390
F
  0
LAYER
  5
7B
330
2
100
AcDbSymbolTableRecord
100
AcDbLayerTableRecord
  2
SILIK
 70
     0
 62
     7
  6
Continuous
370
    -3
390
F
  0
LAYER
  5
7C
330
2
100
AcDbSymbolTableRecord
100
AcDbLayerTableRecord
  2
MODEL
 70
     0
 62
     7
  6
Continuous
370
    -3
390
F
  0
LAYER
  5
7D
330
2
100
AcDbSymbolTableRecord
100
AcDbLayerTableRecord
  2
DETAYLANDıRMA
 70
     0
 62
   190
  6
Continuous
370
    -3
390
F
  0
LAYER
  5
7E
330
2
100
AcDbSymbolTableRecord
100
AcDbLayerTableRecord
  2
TOLERANS
 70
     0
 62
   230
  6
Continuous
370
    -3
390
F
  0
LAYER
  5
7F
330
2
100
AcDbSymbolTableRecord
100
AcDbLayerTableRecord
  2
MERKEZ_CIZGILERI
 70
     0
 62
    30
  6
Continuous
370
    -3
390
F
  0
LAYER
  5
80
330
2
100
AcDbSymbolTableRecord
100
AcDbLayerTableRecord
  2
KESIT-DETAY_CIZGILERI
 70
     0
 62
     7
  6
Continuous
370
    -3
390
F
  0
LAYER
  5
81
330
2
100
AcDbSymbolTableRecord
100
AcDbLayerTableRecord
  2
\U+041E\U+0421\U+0415\U+0412\U+042B\U+0415
 70
     0
 62
     7
  6
Continuous
370
    -3
390
F
  0
LAYER
  5
82
330
2
100
AcDbSymbolTableRecord
100
AcDbLayerTableRecord
  2
\U+0412\U+041E\U+0414\U+042F\U+041D\U+042B\U+0415_\U+0417\U+041D\U+0410\U+041A\U+0418
 70
     0
 62
    11
  6
Continuous
370
    -3
390
F
  0
ENDTAB
  0
TABLE
  2
STYLE
  5
3
330
0
100
AcDbSymbolTable
 70
     1
  0
STYLE
  5
11
330
3
100
AcDbSymbolTableRecord
100
AcDbTextStyleTableRecord
  2
Standard
 70
     0
 40
0.0
 41
1.0
 50
0.0
 71
     0
 42
3.5
  3
txt
  4

  0
ENDTAB
  0
TABLE
  2
VIEW
  5
6
330
0
100
AcDbSymbolTable
 70
     0
  0
ENDTAB
  0
TABLE
  2
UCS
  5
7
330
0
100
AcDbSymbolTable
 70
     0
  0
ENDTAB
  0
TABLE
  2
APPID
  5
9
330
0
100
AcDbSymbolTable
 70
     1
  0
APPID
  5
12
330
9
100
AcDbSymbolTableRecord
100
AcDbRegAppTableRecord
  2
ACAD
 70
     0
  0
ENDTAB
  0
TABLE
  2
DIMSTYLE
  5
A
330
0
100
AcDbSymbolTable
 70
     1
100
AcDbDimStyleTable
  0
DIMSTYLE
105
27
330
A
100
AcDbSymbolTableRecord
100
AcDbDimStyleTableRecord
  2
ISO-25
 70
     0
 41
2.5
 42
0.625
 43
3.75
 44
1.25
 73
     0
 74
     0
 77
     1
 78
     8
140
2.5
141
2.5
143
0.0393700787
147
0.625
171
     3
172
     1
178
     0
271
     2
272
     2
274
     3
278
    44
283
     0
284
     8
340
11
  0
ENDTAB
  0
TABLE
  2
BLOCK_RECORD
  5
1
330
0
100
AcDbSymbolTable
 70
     5
  0
BLOCK_RECORD
  5
1F
330
1
100
AcDbSymbolTableRecord
100
AcDbBlockTableRecord
  2
*Model_Space
340
22
  0
BLOCK_RECORD
  5
1B
330
1
100
AcDbSymbolTableRecord
100
AcDbBlockTableRecord
  2
*Paper_Space
340
1E
  0
BLOCK_RECORD
  5
23
330
1
100
AcDbSymbolTableRecord
100
AcDbBlockTableRecord
  2
*Paper_Space0
340
26
  0
BLOCK_RECORD
  5
8C
330
1
100
AcDbSymbolTableRecord
100
AcDbBlockTableRecord
  2
SW_CENTERMARKSYMBOL_0
340
0
102
{BLKREFS
331
97
102
}
  0
BLOCK_RECORD
  5
AA
330
1
100
AcDbSymbolTableRecord
100
AcDbBlockTableRecord
  2
SW_CENTERMARKSYMBOL_1
340
0
102
{BLKREFS
331
B5
102
}
  0
BLOCK_RECORD
  5
DA
330
1
100
AcDbSymbolTableRecord
100
AcDbBlockTableRecord
  2
SW_CENTERMARKSYMBOL_2
340
0
102
{BLKREFS
331
E5
102
}
  0
BLOCK_RECORD
  5
E6
330
1
100
AcDbSymbolTableRecord
100
AcDbBlockTableRecord
  2
SW_CENTERMARKSYMBOL_3
340
0
102
{BLKREFS
331
F1
102
}
  0
ENDTAB
  0
ENDSEC
  0
SECTION
  2
BLOCKS
  0
BLOCK
  5
20
330
1F
100
AcDbEntity
  8
0
100
AcDbBlockBegin
  2
*Model_Space
 70
     0
 10
0.0
 20
0.0
 30
0.0
  3
*Model_Space
  1

  0
ENDBLK
  5
21
330
1F
100
AcDbEntity
  8
0
100
AcDbBlockEnd
  0
BLOCK
  5
1C
330
1B
100
AcDbEntity
 67
     1
  8
0
100
AcDbBlockBegin
  2
*Paper_Space
 70
     0
 10
0.0
 20
0.0
 30
0.0
  3
*Paper_Space
  1

  0
ENDBLK
  5
1D
330
1B
100
AcDbEntity
 67
     1
  8
0
100
AcDbBlockEnd
  0
BLOCK
  5
24
330
23
100
AcDbEntity
  8
0
100
AcDbBlockBegin
  2
*Paper_Space0
 70
     0
 10
0.0
 20
0.0
 30
0.0
  3
*Paper_Space0
  1

  0
ENDBLK
  5
25
330
23
100
AcDbEntity
  8
0
100
AcDbBlockEnd
  0
BLOCK
  5
8D
330
8C
100
AcDbEntity
  8
0
100
AcDbBlockBegin
  2
SW_CENTERMARKSYMBOL_0
 70
     0
 10
0.0
 20
0.0
 30
0.0
  3
SW_CENTERMARKSYMBOL_0
  1

  0
LINE
  5
8F
330
8C
100
AcDbEntity
  8
FORMAT
 62
     0
100
AcDbLine
 10
0.0
 20
0.0
 30
0.0
 11
0.0
 21
2.5
 31
0.0
  0
LINE
  5
90
330
8C
100
AcDbEntity
  8
FORMAT
 62
     0
100
AcDbLine
 10
0.0
 20
0.0
 30
0.0
 11
-2.5
 21
0.0
 31
0.0
  0
LINE
  5
91
330
8C
100
AcDbEntity
  8
FORMAT
 62
     0
100
AcDbLine
 10
0.0
 20
0.0
 30
0.0
 11
0.0
 21
-2.5
 31
0.0
  0
LINE
  5
92
330
8C
100
AcDbEntity
  8
FORMAT
 62
     0
100
AcDbLine
 10
0.0
 20
0.0
 30
0.0
 11
2.5
 21
0.0
 31
0.0
  0
LINE
  5
93
330
8C
100
AcDbEntity
  8
FORMAT
 62
     0
100
AcDbLine
 10
0.0
 20
5.0
 30
0.0
 11
0.0
 21
34.5
 31
0.0
  0
LINE
  5
94
330
8C
100
AcDbEntity
  8
FORMAT
 62
     0
100
AcDbLine
 10
-5.0
 20
0.0
 30
0.0
 11
-34.5
 21
0.0
 31
0.0
  0
LINE
  5
95
330
8C
100
AcDbEntity
  8
FORMAT
 62
     0
100
AcDbLine
 10
0.0
 20
-5.0
 30
0.0
 11
0.0
 21
-34.5
 31
0.0
  0
LINE
  5
96
330
8C
100
AcDbEntity
  8
FORMAT
 62
     0
100
AcDbLine
 10
5.0
 20
0.0
 30
0.0
 11
34.5
 21
0.0
 31
0.0
  0
ENDBLK
  5
8E
330
8C
100
AcDbEntity
  8
0
100
AcDbBlockEnd
  0
BLOCK
  5
AB
330
AA
100
AcDbEntity
  8
0
100
AcDbBlockBegin
  2
SW_CENTERMARKSYMBOL_1
 70
     0
 10
0.0
 20
0.0
 30
0.0
  3
SW_CENTERMARKSYMBOL_1
  1

  0
LINE
  5
AD
330
AA
100
AcDbEntity
  8
FORMAT
 62
     0
100
AcDbLine
 10
0.0
 20
0.0
 30
0.0
 11
0.0
 21
2.5
 31
0.0
  0
LINE
  5
AE
330
AA
100
AcDbEntity
  8
FORMAT
 62
     0
100
AcDbLine
 10
0.0
 20
0.0
 30
0.0
 11
-2.5
 21
0.0
 31
0.0
  0
LINE
  5
AF
330
AA
100
AcDbEntity
  8
FORMAT
 62
     0
100
AcDbLine
 10
0.0
 20
0.0
 30
0.0
 11
0.0
 21
-2.5
 31
0.0
  0
LINE
  5
B0
330
AA
100
AcDbEntity
  8
FORMAT
 62
     0
100
AcDbLine
 10
0.0
 20
0.0
 30
0.0
 11
2.5
 21
0.0
 31
0.0
  0
LINE
  5
B1
330
AA
100
AcDbEntity
  8
FORMAT
 62
     0
100
AcDbLine
 10
0.0
 20
5.0
 30
0.0
 11
0.0
 21
27.5
 31
0.0
  0
LINE
  5
B2
330
AA
100
AcDbEntity
  8
FORMAT
 62
     0
100
AcDbLine
 10
-5.0
 20
0.0
 30
0.0
 11
-27.5
 21
0.0
 31
0.0
  0
LINE
  5
B3
330
AA
100
AcDbEntity
  8
FORMAT
 62
     0
100
AcDbLine
 10
0.0
 20
-5.0
 30
0.0
 11
0.0
 21
-27.5
 31
0.0
  0
LINE
  5
B4
330
AA
100
AcDbEntity
  8
FORMAT
 62
     0
100
AcDbLine
 10
5.0
 20
0.0
 30
0.0
 11
27.5
 21
0.0
 31
0.0
  0
ENDBLK
  5
AC
330
AA
100
AcDbEntity
  8
0
100
AcDbBlockEnd
  0
BLOCK
  5
DB
330
DA
100
AcDbEntity
  8
0
100
AcDbBlockBegin
  2
SW_CENTERMARKSYMBOL_2
 70
     0
 10
0.0
 20
0.0
 30
0.0
  3
SW_CENTERMARKSYMBOL_2
  1

  0
LINE
  5
DD
330
DA
100
AcDbEntity
  8
FORMAT
 62
     0
100
AcDbLine
 10
0.0
 20
0.0
 30
0.0
 11
0.0
 21
2.5
 31
0.0
  0
LINE
  5
DE
330
DA
100
AcDbEntity
  8
FORMAT
 62
     0
100
AcDbLine
 10
0.0
 20
0.0
 30
0.0
 11
-2.5
 21
0.0
 31
0.0
  0
LINE
  5
DF
330
DA
100
AcDbEntity
  8
FORMAT
 62
     0
100
AcDbLine
 10
0.0
 20
0.0
 30
0.0
 11
0.0
 21
-2.5
 31
0.0
  0
LINE
  5
E0
330
DA
100
AcDbEntity
  8
FORMAT
 62
     0
100
AcDbLine
 10
0.0
 20
0.0
 30
0.0
 11
2.5
 21
0.0
 31
0.0
  0
LINE
  5
E1
330
DA
100
AcDbEntity
  8
FORMAT
 62
     0
100
AcDbLine
 10
0.0
 20
5.0
 30
0.0
 11
0.0
 21
9.5
 31
0.0
  0
LINE
  5
E2
330
DA
100
AcDbEntity
  8
FORMAT
 62
     0
100
AcDbLine
 10
-5.0
 20
0.0
 30
0.0
 11
-9.5
 21
0.0
 31
0.0
  0
LINE
  5
E3
330
DA
100
AcDbEntity
  8
FORMAT
 62
     0
100
AcDbLine
 10
0.0
 20
-5.0
 30
0.0
 11
0.0
 21
-9.5
 31
0.0
  0
LINE
  5
E4
330
DA
100
AcDbEntity
  8
FORMAT
 62
     0
100
AcDbLine
 10
5.0
 20
0.0
 30
0.0
 11
9.5
 21
0.0
 31
0.0
  0
ENDBLK
  5
DC
330
DA
100
AcDbEntity
  8
0
100
AcDbBlockEnd
  0
BLOCK
  5
E7
330
E6
100
AcDbEntity
  8
0
100
AcDbBlockBegin
  2
SW_CENTERMARKSYMBOL_3
 70
     0
 10
0.0
 20
0.0
 30
0.0
  3
SW_CENTERMARKSYMBOL_3
  1

  0
LINE
  5
E9
330
E6
100
AcDbEntity
  8
FORMAT
 62
     0
100
AcDbLine
 10
0.0
 20
0.0
 30
0.0
 11
0.0
 21
2.5
 31
0.0
  0
LINE
  5
EA
330
E6
100
AcDbEntity
  8
FORMAT
 62
     0
100
AcDbLine
 10
0.0
 20
0.0
 30
0.0
 11
-2.5
 21
0.0
 31
0.0
  0
LINE
  5
EB
330
E6
100
AcDbEntity
  8
FORMAT
 62
     0
100
AcDbLine
 10
0.0
 20
0.0
 30
0.0
 11
0.0
 21
-2.5
 31
0.0
  0
LINE
  5
EC
330
E6
100
AcDbEntity
  8
FORMAT
 62
     0
100
AcDbLine
 10
0.0
 20
0.0
 30
0.0
 11
2.5
 21
0.0
 31
0.0
  0
LINE
  5
ED
330
E6
100
AcDbEntity
  8
FORMAT
 62
     0
100
AcDbLine
 10
0.0
 20
5.0
 30
0.0
 11
0.0
 21
9.5
 31
0.0
  0
LINE
  5
EE
330
E6
100
AcDbEntity
  8
FORMAT
 62
     0
100
AcDbLine
 10
-5.0
 20
0.0
 30
0.0
 11
-9.5
 21
0.0
 31
0.0
  0
LINE
  5
EF
330
E6
100
AcDbEntity
  8
FORMAT
 62
     0
100
AcDbLine
 10
0.0
 20
-5.0
 30
0.0
 11
0.0
 21
-9.5
 31
0.0
  0
LINE
  5
F0
330
E6
100
AcDbEntity
  8
FORMAT
 62
     0
100
AcDbLine
 10
5.0
 20
0.0
 30
0.0
 11
9.5
 21
0.0
 31
0.0
  0
ENDBLK
  5
E8
330
E6
100
AcDbEntity
  8
0
100
AcDbBlockEnd
  0
ENDSEC
  0
SECTION
  2
ENTITIES
  0
LINE
  5
83
330
1F
100
AcDbEntity
  8
0
  6
Continuous
 62
     7
370
    25
100
AcDbLine
 10
121.3295369748
 20
142.7618069377
 30
0.0
 11
121.3295369748
 21
183.5314365546
 31
0.0
  0
LINE
  5
84
330
1F
100
AcDbEntity
  8
0
  6
Continuous
 62
     7
370
    25
100
AcDbLine
 10
107.3295369748
 20
183.5314365546
 30
0.0
 11
107.3295369748
 21
142.7593381784
 31
0.0
  0
LINE
  5
85
330
1F
100
AcDbEntity
  8
0
  6
Continuous
 62
     7
370
    25
100
AcDbLine
 10
134.3578459094
 20
86.5314365546
 30
0.0
 11
210.3295369748
 21
86.5314365546
 31
0.0
  0
LINE
  5
86
330
1F
100
AcDbEntity
  8
0
  6
Continuous
 62
     7
370
    25
100
AcDbLine
 10
210.3295369748
 20
136.5314365546
 30
0.0
 11
134.3560690839
 21
136.5314365546
 31
0.0
  0
CIRCLE
  5
87
330
1F
100
AcDbEntity
  8
0
  6
Continuous
 62
     7
370
    25
100
AcDbCircle
 10
114.3295369748
 20
111.5314365546
 30
0.0
 40
25.00000000000003
  0
CIRCLE
  5
88
330
1F
100
AcDbEntity
  8
0
  6
Continuous
 62
     7
370
    25
100
AcDbCircle
 10
114.3295369748
 20
111.5314365546
 30
0.0
 40
32.0
  0
LINE
  5
89
330
1F
100
AcDbEntity
  8
0
  6
Continuous
 62
     7
370
    25
100
AcDbLine
 10
114.3295369748
 20
183.5314365546
 30
0.0
 11
107.3295369748
 21
183.5314365546
 31
0.0
  0
LINE
  5
8A
330
1F
100
AcDbEntity
  8
0
  6
Continuous
 62
     7
370
    25
100
AcDbLine
 10
121.3295369748
 20
183.5314365546
 30
0.0
 11
114.3295369748
 21
183.5314365546
 31
0.0
  0
LINE
  5
8B
330
1F
100
AcDbEntity
  8
0
  6
Continuous
 62
     7
370
    25
100
AcDbLine
 10
210.3295369748
 20
136.5314365546
 30
0.0
 11
210.3295369748
 21
86.5314365546
 31
0.0
  0
INSERT
  5
97
330
1F
100
AcDbEntity
  8
FORMAT
 62
     7
100
AcDbBlockReference
  2
SW_CENTERMARKSYMBOL_0
 10
114.3295369748
 20
111.5314365546
 30
0.0
  0
LINE
  5
98
330
1F
100
AcDbEntity
  8
0
  6
Continuous
 62
     7
370
    25
100
AcDbLine
 10
-121.233568809
 20
143.5314365546
 30
0.0
 11
-122.2496648937
 21
143.5314365546
 31
0.0
  0
LINE
  5
99
330
1F
100
AcDbEntity
  8
0
  6
Continuous
 62
     7
370
    25
100
AcDbLine
 10
0.766431191
 20
143.5314365546
 30
0.0
 11
-107.2496648937
 21
143.5314365546
 31
0.0
  0
LINE
  5
9A
330
1F
100
AcDbEntity
  8
0
  6
Continuous
 62
     7
370
    25
100
AcDbLine
 10
15.7503351063
 20
143.5314365546
 30
0.0
 11
14.7503351063
 21
143.5314365546
 31
0.0
  0
LINE
  5
9B
330
1F
100
AcDbEntity
  8
0
  6
Continuous
 62
     7
370
    25
100
AcDbLine
 10
-122.2496648937
 20
79.5314365546
 30
0.0
 11
15.7503351063
 21
79.5314365546
 31
0.0
  0
LINE
  5
9C
330
1F
100
AcDbEntity
  8
0
  6
Continuous
 62
     7
370
    25
100
AcDbLine
 10
14.7503351063
 20
143.5314365546
 30
0.0
 11
14.7503351063
 21
183.5314365546
 31
0.0
  0
LINE
  5
9D
330
1F
100
AcDbEntity
  8
0
  6
Continuous
 62
     7
370
    25
100
AcDbLine
 10
0.7503351063
 20
183.5314365546
 30
0.0
 11
0.7503351063
 21
143.5279337816
 31
0.0
  0
LINE
  5
9E
330
1F
100
AcDbEntity
  8
0
  6
Continuous
 62
     7
370
    25
100
AcDbLine
 10
-107.2496648937
 20
143.5314365546
 30
0.0
 11
-107.2496648937
 21
183.5314365546
 31
0.0
  0
LINE
  5
9F
330
1F
100
AcDbEntity
  8
0
  6
Continuous
 62
     7
370
    25
100
AcDbLine
 10
-121.2496648937
 20
183.5314365546
 30
0.0
 11
-121.2496648937
 21
143.5279337816
 31
0.0
  0
CIRCLE
  5
A0
330
1F
100
AcDbEntity
  8
0
  6
Continuous
 62
     7
370
    25
100
AcDbCircle
 10
-53.2496648937
 20
111.5314365546
 30
0.0
 40
20.4
  0
CIRCLE
  5
A1
330
1F
100
AcDbEntity
  8
0
  6
Continuous
 62
     7
370
    25
100
AcDbCircle
 10
-53.2496648937
 20
111.5314365546
 30
0.0
 40
25.0
  0
LINE
  5
A2
330
1F
100
AcDbEntity
  8
0
  6
Continuous
 62
     7
370
    25
100
AcDbLine
 10
-122.2496648937
 20
111.5314365546
 30
0.0
 11
-122.2496648937
 21
143.5314365546
 31
0.0
  0
LINE
  5
A3
330
1F
100
AcDbEntity
  8
0
  6
Continuous
 62
     7
370
    25
100
AcDbLine
 10
-122.2496648937
 20
79.5314365546
 30
0.0
 11
-122.2496648937
 21
111.5314365546
 31
0.0
  0
LINE
  5
A4
330
1F
100
AcDbEntity
  8
0
  6
Continuous
 62
     7
370
    25
100
AcDbLine
 10
15.7503351063
 20
111.5314365546
 30
0.0
 11
15.7503351063
 21
143.5314365546
 31
0.0
  0
LINE
  5
A5
330
1F
100
AcDbEntity
  8
0
  6
Continuous
 62
     7
370
    25
100
AcDbLine
 10
15.7503351063
 20
79.5314365546
 30
0.0
 11
15.7503351063
 21
111.5314365546
 31
0.0
  0
SPLINE
  5
A6
330
1F
100
AcDbEntity
  8
0
  6
Continuous
 62
     7
370
    25
100
AcDbSpline
210
0.0
220
0.0
230
1.0
 70
     8
 71
     3
 72
    26
 73
    22
 74
     0
 42
0.00000001
 43
0.00000001
 40
0.0
 40
0.0
 40
0.0
 40
0.0
 40
0.0520675274430495
 40
0.105666671967321
 40
0.1577282179645919
 40
0.2112595043940476
 40
0.2640685627030973
 40
0.3183745648540826
 40
0.3717266027121224
 40
0.426672179076228
 40
0.4791818583252264
 40
0.533271500296321
 40
0.584860755831841
 40
0.6379251688157168
 40
0.6899504185222737
 40
0.7434222076302445
 40
0.7965498093011417
 40
0.8512093268172594
 40
0.904412352841861
 40
0.9592192521975945
 40
1.0
 40
1.0
 40
1.0
 40
1.0
 10
14.75033510628621
 20
143.5314365546218
 30
0.0
 10
14.73212296761105
 20
143.5274274721721
 30
0.0
 10
14.69516296244627
 20
143.5192913762037
 30
0.0
 10
14.39821451093188
 20
143.4555300408678
 30
0.0
 10
13.92962404093292
 20
143.3604763233731
 30
0.0
 10
13.29136073565539
 20
143.2416136092577
 30
0.0
 10
12.4915573738112
 20
143.1104523400062
 30
0.0
 10
11.55886079192812
 20
142.9826381878381
 30
0.0
 10
10.50360712464349
 20
142.8712014397757
 30
0.0
 10
9.378387027854158
 20
142.7917085350711
 30
0.0
 10
8.200194338953533
 20
142.7522491803519
 30
0.0
 10
7.032672922012741
 20
142.7574394281841
 30
0.0
 10
5.882813155361919
 20
142.8056039531557
 30
0.0
 10
4.79991324934325
 20
142.8896835823775
 30
0.0
 10
3.787192205961978
 20
143.0021184273272
 30
0.0
 10
2.883222582488576
 20
143.1298040925102
 30
0.0
 10
2.101315359380469
 20
143.260755135687
 30
0.0
 10
1.477875592429567
 20
143.3788007988561
 30
0.0
 10
1.033485826776509
 20
143.470064090897
 30
0.0
 10
0.7824297100988281
 20
143.524386502072
 30
0.0
 10
0.7712155222735981
 20
143.5268679380336
 30
0.0
 10
0.7664311910435401
 20
143.5279265979876
 30
0.0
  0
SPLINE
  5
A7
330
1F
100
AcDbEntity
  8
0
  6
Continuous
 62
     7
370
    25
100
AcDbSpline
210
0.0
220
0.0
230
1.0
 70
     8
 71
     3
 72
    26
 73
    22
 74
     0
 42
0.00000001
 43
0.00000001
 40
0.0
 40
0.0
 40
0.0
 40
0.0
 40
0.0520675274430494
 40
0.105666671967321
 40
0.1577282179645917
 40
0.2112595043940474
 40
0.2640685627030963
 40
0.318374564854082
 40
0.3717266027121218
 40
0.4266721790762272
 40
0.4791818583252258
 40
0.5332715002963208
 40
0.5848607558318407
 40
0.6379251688157164
 40
0.6899504185222736
 40
0.7434222076302447
 40
0.7965498093011415
 40
0.8512093268172592
 40
0.9044123528418607
 40
0.9592192521975945
 40
1.0
 40
1.0
 40
1.0
 40
1.0
 10
-107.2496648937138
 20
143.5314365546218
 30
0.0
 10
-107.267877032389
 20
143.527427472172
 30
0.0
 10
-107.3048370375537
 20
143.5192913762037
 30
0.0
 10
-107.6017854890681
 20
143.4555300408678
 30
0.0
 10
-108.0703759590671
 20
143.3604763233731
 30
0.0
 10
-108.7086392643446
 20
143.2416136092577
 30
0.0
 10
-109.5084426261888
 20
143.1104523400062
 30
0.0
 10
-110.4411392080719
 20
142.9826381878381
 30
0.0
 10
-111.4963928753565
 20
142.8712014397757
 30
0.0
 10
-112.6216129721458
 20
142.7917085350711
 30
0.0
 10
-113.7998056610465
 20
142.7522491803518
 30
0.0
 10
-114.9673270779873
 20
142.7574394281841
 30
0.0
 10
-116.1171868446381
 20
142.8056039531557
 30
0.0
 10
-117.2000867506567
 20
142.8896835823775
 30
0.0
 10
-118.212807794038
 20
143.0021184273272
 30
0.0
 10
-119.1167774175114
 20
143.1298040925102
 30
0.0
 10
-119.8986846406195
 20
143.2607551356869
 30
0.0
 10
-120.5221244075705
 20
143.3788007988561
 30
0.0
 10
-120.9665141732235
 20
143.470064090897
 30
0.0
 10
-121.2175702899012
 20
143.524386502072
 30
0.0
 10
-121.2287844777264
 20
143.5268679380336
 30
0.0
 10
-121.2335688089565
 20
143.5279265979876
 30
0.0
  0
LINE
  5
A8
330
1F
100
AcDbEntity
  8
0
  6
Continuous
 62
     7
370
    25
100
AcDbLine
 10
14.7503351063
 20
183.5314365546
 30
0.0
 11
0.7503351063
 21
183.5314365546
 31
0.0
  0
LINE
  5
A9
330
1F
100
AcDbEntity
  8
0
  6
Continuous
 62
     7
370
    25
100
AcDbLine
 10
-107.2496648937
 20
183.5314365546
 30
0.0
 11
-121.2496648937
 21
183.5314365546
 31
0.0
  0
INSERT
  5
B5
330
1F
100
AcDbEntity
  8
FORMAT
 62
     7
100
AcDbBlockReference
  2
SW_CENTERMARKSYMBOL_1
 10
-53.2496648937
 20
111.5314365546
 30
0.0
  0
LINE
  5
B6
330
1F
100
AcDbEntity
  8
0
  6
Continuous
 62
     7
370
    25
100
AcDbLine
 10
146.3295369748
 20
318.5514185015
 30
0.0
 11
146.3295369748
 21
362.5514185015
 31
0.0
  0
LINE
  5
B7
330
1F
100
AcDbEntity
  8
0
  6
Continuous
 62
     7
370
    25
100
AcDbLine
 10
146.3295369748
 20
224.5514185015
 30
0.0
 11
146.3295369748
 21
268.557106718
 31
0.0
  0
LINE
  5
B8
330
1F
100
AcDbEntity
  8
0
  6
Continuous
 62
     7
370
    25
100
AcDbLine
 10
82.3295369748
 20
362.5514185015
 30
0.0
 11
82.3295369748
 21
224.5514185015
 31
0.0
  0
LINE
  5
B9
330
1F
100
AcDbEntity
  8
0
  6
Continuous
 62
     7
370
    25
100
AcDbLine
 10
146.3250936394
 20
268.5514185015
 30
0.0
 11
210.3295369748
 21
268.5514185015
 31
0.0
  0
LINE
  5
BA
330
1F
100
AcDbEntity
  8
0
  6
Continuous
 62
     7
370
    25
100
AcDbLine
 10
210.3295369748
 20
318.5514185015
 30
0.0
 11
146.3295369748
 21
318.5514185015
 31
0.0
  0
SPLINE
  5
BB
330
1F
100
AcDbEntity
  8
0
  6
Continuous
 62
     7
370
    25
100
AcDbSpline
210
0.0
220
0.0
230
1.0
 70
     8
 71
     3
 72
    42
 73
    38
 74
     0
 42
0.00000001
 43
0.00000001
 40
0.0
 40
0.0
 40
0.0
 40
0.0
 40
0.0215405169420208
 40
0.0430816938930938
 40
0.065338082916967
 40
0.0875963939000689
 40
0.1091134953664799
 40
0.1306326387744953
 40
0.1746930581786777
 40
0.2034292035695479
 40
0.2321694921329683
 40
0.2617330026238169
 40
0.2912981345402028
 40
0.3204103683616537
 40
0.3495196619538322
 40
0.3795345250193842
 40
0.4095358403200438
 40
0.4439355528883959
 40
0.4791792833616407
 40
0.5136357687703935
 40
0.549275398468406
 40
0.5698143056556233
 40
0.5903586921191127
 40
0.6325635042945361
 40
0.6620801621002071
 40
0.6916020974732255
 40
0.7219554624418307
 40
0.7523082007216464
 40
0.7822286842013566
 40
0.8121450046936478
 40
0.8431224399041327
 40
0.8740920918174233
 40
0.916360924282411
 40
0.9380948777536832
 40
0.9598271429405215
 40
0.9810012353067167
 40
1.0
 40
1.0
 40
1.0
 40
1.0
 10
146.3295369747899
 20
318.5514185014867
 30
0.0
 10
146.3198395086075
 20
318.5390293654206
 30
0.0
 10
146.300444279109
 20
318.5142507136807
 30
0.0
 10
146.1449712606337
 20
318.3148809424485
 30
0.0
 10
145.8953026615247
 20
317.9935983290774
 30
0.0
 10
145.5498256282575
 20
317.545996422979
 30
0.0
 10
145.1232970240185
 20
316.9887481453624
 30
0.0
 10
144.4544924354523
 20
316.1052693106059
 30
0.0
 10
143.5817696667187
 20
314.9303216191418
 30
0.0
 10
142.5158535007494
 20
313.4454088785344
 30
0.0
 10
141.5375452475586
 20
312.0354992300882
 30
0.0
 10
140.5048311941572
 20
310.4828706425018
 30
0.0
 10
139.4468291359818
 20
308.7994907783946
 30
0.0
 10
138.3974007617029
 20
307.0071372442637
 30
0.0
 10
137.3759762667233
 20
305.0887525766172
 30
0.0
 10
136.4113199790154
 20
303.0310180334995
 30
0.0
 10
135.511500635762
 20
300.7207948784002
 30
0.0
 10
134.764673194078
 20
298.1388121235416
 30
0.0
 10
134.3123853911627
 20
295.3076220709074
 30
0.0
 10
134.2676833187486
 20
292.3822847950592
 30
0.0
 10
134.5945366389145
 20
289.8993217489494
 30
0.0
 10
135.0771252605911
 20
287.8730795578473
 30
0.0
 10
135.7360972675837
 20
285.7416957492746
 30
0.0
 10
136.6516862292895
 20
283.5066783443315
 30
0.0
 10
137.7822969905254
 20
281.2243776772868
 30
0.0
 10
138.8354295329694
 20
279.328947442804
 30
0.0
 10
139.9184573672628
 20
277.5381253178715
 30
0.0
 10
140.9989426927894
 20
275.8673690211269
 30
0.0
 10
142.0390088510641
 20
274.3371082050408
 30
0.0
 10
143.0281198416664
 20
272.9385984457848
 30
0.0
 10
143.9424573079683
 20
271.6849591204662
 30
0.0
 10
144.8523613143076
 20
270.4681132199761
 30
0.0
 10
145.5113907777538
 20
269.6062496162356
 30
0.0
 10
145.9401466507405
 20
269.0514161319508
 30
0.0
 10
146.1703365506335
 20
268.7554022966348
 30
0.0
 10
146.3071778130881
 20
268.5799789069733
 30
0.0
 10
146.3193403246344
 20
268.564450497411
 30
0.0
 10
146.3250922853328
 20
268.5571067180304
 30
0.0
  0
LINE
  5
BC
330
1F
100
AcDbEntity
  8
0
  6
Continuous
 62
     7
370
    25
100
AcDbLine
 10
82.3295369748
 20
362.5514185015
 30
0.0
 11
146.3295369748
 21
362.5514185015
 31
0.0
  0
LINE
  5
BD
330
1F
100
AcDbEntity
  8
0
  6
Continuous
 62
     7
370
    25
100
AcDbLine
 10
82.3295369748
 20
224.5514185015
 30
0.0
 11
146.3295369748
 21
224.5514185015
 31
0.0
  0
LINE
  5
BE
330
1F
100
AcDbEntity
  8
0
  6
Continuous
 62
     7
370
    25
100
AcDbLine
 10
210.3295369748
 20
318.5514185015
 30
0.0
 11
210.3295369748
 21
268.5514185015
 31
0.0
  0
LINE
  5
BF
330
1F
100
AcDbEntity
  8
0
  6
Continuous
 62
     7
370
    25
100
AcDbLine
 10
272.3456794702
 20
79.5314365546
 30
0.0
 11
410.3456794702
 21
79.5314365546
 31
0.0
  0
LINE
  5
C0
330
1F
100
AcDbEntity
  8
0
  6
Continuous
 62
     7
370
    25
100
AcDbLine
 10
273.3456794702
 20
143.5314365546
 30
0.0
 11
272.3456794702
 21
143.5314365546
 31
0.0
  0
LINE
  5
C1
330
1F
100
AcDbEntity
  8
0
  6
Continuous
 62
     7
370
    25
100
AcDbLine
 10
395.3456794702
 20
143.5314365546
 30
0.0
 11
287.3295833854
 21
143.5314365546
 31
0.0
  0
LINE
  5
C2
330
1F
100
AcDbEntity
  8
0
  6
Continuous
 62
     7
370
    25
100
AcDbLine
 10
410.3456794702
 20
143.5314365546
 30
0.0
 11
409.3295833854
 21
143.5314365546
 31
0.0
  0
LINE
  5
C3
330
1F
100
AcDbEntity
  8
0
  6
Continuous
 62
     7
370
    25
100
AcDbLine
 10
287.3456794702
 20
143.5279337816
 30
0.0
 11
287.3456794702
 21
183.5314365546
 31
0.0
  0
LINE
  5
C4
330
1F
100
AcDbEntity
  8
0
  6
Continuous
 62
     7
370
    25
100
AcDbLine
 10
273.3456794702
 20
183.5314365546
 30
0.0
 11
273.3456794702
 21
143.5314365546
 31
0.0
  0
LINE
  5
C5
330
1F
100
AcDbEntity
  8
0
  6
Continuous
 62
     7
370
    25
100
AcDbLine
 10
409.3456794702
 20
143.5279337816
 30
0.0
 11
409.3456794702
 21
183.5314365546
 31
0.0
  0
LINE
  5
C6
330
1F
100
AcDbEntity
  8
0
  6
Continuous
 62
     7
370
    25
100
AcDbLine
 10
395.3456794702
 20
183.5314365546
 30
0.0
 11
395.3456794702
 21
143.5314365546
 31
0.0
  0
LINE
  5
C7
330
1F
100
AcDbEntity
  8
0
  6
Continuous
 62
     7
370
    25
100
AcDbLine
 10
410.3456794702
 20
143.5314365546
 30
0.0
 11
410.3456794702
 21
79.5314365546
 31
0.0
  0
LINE
  5
C8
330
1F
100
AcDbEntity
  8
0
  6
Continuous
 62
     7
370
    25
100
AcDbLine
 10
272.3456794702
 20
143.5314365546
 30
0.0
 11
272.3456794702
 21
79.5314365546
 31
0.0
  0
SPLINE
  5
C9
330
1F
100
AcDbEntity
  8
0
  6
Continuous
 62
     7
370
    25
100
AcDbSpline
210
0.0
220
0.0
230
1.0
 70
     8
 71
     3
 72
    26
 73
    22
 74
     0
 42
0.00000001
 43
0.00000001
 40
0.0
 40
0.0
 40
0.0
 40
0.0
 40
0.0113732922160002
 40
0.0650789902192432
 40
0.1167020938314735
 40
0.1697828133243308
 40
0.2221555144247246
 40
0.2759927212460635
 40
0.3292984900853669
 40
0.3841651054429229
 40
0.4371349587923231
 40
0.4917087728290938
 40
0.5435449238156139
 40
0.5968969741677911
 40
0.64858962973519
 40
0.7017244219384322
 40
0.754461687828489
 40
0.8086892286321016
 40
0.8620547758500512
 40
0.9170089318930106
 40
0.9999999999999999
 40
0.9999999999999999
 40
0.9999999999999999
 40
0.9999999999999999
 10
287.3295833854261
 20
143.5279265979876
 30
0.0
 10
287.3345343531544
 20
143.5290060860911
 30
0.0
 10
287.3628642311045
 20
143.5351830130877
 30
0.0
 10
287.2238257700534
 20
143.5047229346975
 30
0.0
 10
286.9070749923642
 20
143.437561039407
 30
0.0
 10
286.400692694839
 20
143.336323939037
 30
0.0
 10
285.7264331281804
 20
143.2137944012962
 30
0.0
 10
284.9016886607849
 20
143.0828879072219
 30
0.0
 10
283.935053912043
 20
142.9565725970158
 30
0.0
 10
282.8689174238701
 20
142.8516593809472
 30
0.0
 10
281.7200408729611
 20
142.7794051720864
 30
0.0
 10
280.5513207482588
 20
142.7496814124475
 30
0.0
 10
279.374661733686
 20
142.7644191391489
 30
0.0
 10
278.2464155199928
 20
142.8204130162786
 30
0.0
 10
277.1690147491308
 20
142.9119982551052
 30
0.0
 10
276.1832764096328
 20
143.0280661714968
 30
0.0
 10
275.29840240526
 20
143.1582586360556
 30
0.0
 10
274.5516102302157
 20
143.2872205951891
 30
0.0
 10
273.9638374553041
 20
143.4005990033942
 30
0.0
 10
273.4663663141912
 20
143.5045733869376
 30
0.0
 10
273.3910134892726
 20
143.5213458494865
 30
0.0
 10
273.3456794701834
 20
143.5314365546218
 30
0.0
  0
SPLINE
  5
CA
330
1F
100
AcDbEntity
  8
0
  6
Continuous
 62
     7
370
    25
100
AcDbSpline
210
0.0
220
0.0
230
1.0
 70
     8
 71
     3
 72
    26
 73
    22
 74
     0
 42
0.00000001
 43
0.00000001
 40
0.0
 40
0.0
 40
0.0
 40
0.0
 40
0.0113732922160002
 40
0.0650789902192431
 40
0.1167020938314734
 40
0.1697828133243307
 40
0.2221555144247248
 40
0.2759927212460638
 40
0.3292984900853671
 40
0.3841651054429229
 40
0.4371349587923231
 40
0.4917087728290938
 40
0.5435449238156139
 40
0.5968969741677908
 40
0.6485896297351886
 40
0.7017244219384318
 40
0.7544616878284888
 40
0.8086892286321011
 40
0.8620547758500512
 40
0.9170089318930106
 40
0.9999999999999999
 40
0.9999999999999999
 40
0.9999999999999999
 40
0.9999999999999999
 10
409.3295833854261
 20
143.5279265979876
 30
0.0
 10
409.3345343531545
 20
143.5290060860911
 30
0.0
 10
409.3628642311046
 20
143.5351830130877
 30
0.0
 10
409.2238257700535
 20
143.5047229346975
 30
0.0
 10
408.9070749923642
 20
143.437561039407
 30
0.0
 10
408.400692694839
 20
143.336323939037
 30
0.0
 10
407.7264331281805
 20
143.2137944012962
 30
0.0
 10
406.9016886607849
 20
143.0828879072219
 30
0.0
 10
405.935053912043
 20
142.9565725970158
 30
0.0
 10
404.8689174238701
 20
142.8516593809472
 30
0.0
 10
403.7200408729611
 20
142.7794051720864
 30
0.0
 10
402.5513207482588
 20
142.7496814124475
 30
0.0
 10
401.374661733686
 20
142.7644191391489
 30
0.0
 10
400.2464155199928
 20
142.8204130162786
 30
0.0
 10
399.1690147491308
 20
142.9119982551052
 30
0.0
 10
398.1832764096328
 20
143.0280661714968
 30
0.0
 10
397.2984024052599
 20
143.1582586360556
 30
0.0
 10
396.5516102302157
 20
143.2872205951891
 30
0.0
 10
395.9638374553041
 20
143.4005990033942
 30
0.0
 10
395.4663663141912
 20
143.5045733869376
 30
0.0
 10
395.3910134892726
 20
143.5213458494865
 30
0.0
 10
395.3456794701834
 20
143.5314365546218
 30
0.0
  0
LINE
  5
CB
330
1F
100
AcDbEntity
  8
0
  6
Continuous
 62
     7
370
    25
100
AcDbLine
 10
287.3456794702
 20
183.5314365546
 30
0.0
 11
273.3456794702
 21
183.5314365546
 31
0.0
  0
LINE
  5
CC
330
1F
100
AcDbEntity
  8
0
  6
Continuous
 62
     7
370
    25
100
AcDbLine
 10
409.3456794702
 20
183.5314365546
 30
0.0
 11
395.3456794702
 21
183.5314365546
 31
0.0
  0
LINE
  5
CD
330
1F
100
AcDbEntity
  8
0
  6
Continuous
 62
     7
370
    25
100
AcDbLine
 10
82.3295369748
 20
17.7698252527
 30
0.0
 11
82.3295369748
 21
-120.2301747473
 31
0.0
  0
LINE
  5
CE
330
1F
100
AcDbEntity
  8
0
  6
Continuous
 62
     7
370
    25
100
AcDbLine
 10
146.3295369748
 20
-26.2358629638
 30
0.0
 11
146.3295369748
 21
17.7698252527
 31
0.0
  0
LINE
  5
CF
330
1F
100
AcDbEntity
  8
0
  6
Continuous
 62
     7
370
    25
100
AcDbLine
 10
146.3295369748
 20
-120.2301747473
 30
0.0
 11
146.3295369748
 21
-76.2301747473
 31
0.0
  0
LINE
  5
D0
330
1F
100
AcDbEntity
  8
0
  6
Continuous
 62
     7
370
    25
100
AcDbLine
 10
146.3295369748
 20
-76.2301747473
 30
0.0
 11
210.3295369748
 21
-76.2301747473
 31
0.0
  0
LINE
  5
D1
330
1F
100
AcDbEntity
  8
0
  6
Continuous
 62
     7
370
    25
100
AcDbLine
 10
210.3295369748
 20
-26.2301747473
 30
0.0
 11
146.3250936394
 21
-26.2301747473
 31
0.0
  0
CIRCLE
  5
D2
330
1F
100
AcDbEntity
  8
0
  6
Continuous
 62
     7
370
    25
100
AcDbCircle
 10
114.3295369748
 20
9.7698252527
 30
0.0
 40
5.000000000000018
  0
CIRCLE
  5
D3
330
1F
100
AcDbEntity
  8
0
  6
Continuous
 62
     7
370
    25
100
AcDbCircle
 10
114.3295369748
 20
9.7698252527
 30
0.0
 40
7.000000000000021
  0
CIRCLE
  5
D4
330
1F
100
AcDbEntity
  8
0
  6
Continuous
 62
     7
370
    25
100
AcDbCircle
 10
114.3295369748
 20
-112.2301747473
 30
0.0
 40
7.0
  0
CIRCLE
  5
D5
330
1F
100
AcDbEntity
  8
0
  6
Continuous
 62
     7
370
    25
100
AcDbCircle
 10
114.3295369748
 20
-112.2301747473
 30
0.0
 40
5.0
  0
SPLINE
  5
D6
330
1F
100
AcDbEntity
  8
0
  6
Continuous
 62
     7
370
    25
100
AcDbSpline
210
0.0
220
0.0
230
1.0
 70
     8
 71
     3
 72
    41
 73
    37
 74
     0
 42
0.00000001
 43
0.00000001
 40
0.0
 40
0.0
 40
0.0
 40
0.0
 40
0.0021749316132067
 40
0.024053561446948
 40
0.0459329709863438
 40
0.0857157491964042
 40
0.1264977436215162
 40
0.1696034366689899
 40
0.2135955178931992
 40
0.239391241815386
 40
0.2651886377799453
 40
0.2915223739784371
 40
0.3178558450811717
 40
0.3422763623843571
 40
0.3666941314827689
 40
0.3917011792698982
 40
0.4167002812405791
 40
0.4507501787130357
 40
0.4856724252236178
 40
0.5197721494224018
 40
0.5550017851678861
 40
0.5761745781386127
 40
0.5973533122168108
 40
0.6408512681021803
 40
0.6708167017940969
 40
0.7007865295845433
 40
0.7316089920980536
 40
0.7624300323332837
 40
0.7925959733070335
 40
0.8227570865958669
 40
0.8540605719173124
 40
0.8853555542406051
 40
0.9268831281053007
 40
0.9482370234260763
 40
0.9695895338274624
 40
1.0
 40
1.0
 40
1.0
 40
1.0
 10
146.3250922853328
 20
-26.23586296382752
 30
0.0
 10
146.3265407218953
 20
-26.23400943558155
 30
0.0
 10
146.3425596429712
 20
-26.21351042067579
 30
0.0
 10
146.2778769768994
 20
-26.29621550854953
 30
0.0
 10
146.0803885323556
 20
-26.54960926900606
 30
0.0
 10
145.60549992099
 20
-27.16159995822202
 30
0.0
 10
144.7403558766618
 20
-28.29397092929169
 30
0.0
 10
143.5822034744307
 20
-29.84804196061611
 30
0.0
 10
142.3832252521288
 20
-31.51963249363911
 30
0.0
 10
141.2922277973539
 20
-33.11056884328206
 30
0.0
 10
140.3724954847602
 20
-34.50770653843789
 30
0.0
 10
139.4313542604224
 20
-36.01093292074574
 30
0.0
 10
138.5106070967985
 20
-37.58107169276015
 30
0.0
 10
137.634411760786
 20
-39.19832740012873
 30
0.0
 10
136.8145880559544
 20
-40.86931916586149
 30
0.0
 10
136.0525738580154
 20
-42.63778702633925
 30
0.0
 10
135.299145158637
 20
-44.73066664482198
 30
0.0
 10
134.6476023634993
 20
-47.19290093392782
 30
0.0
 10
134.2727818730909
 20
-50.01414260988195
 30
0.0
 10
134.3063250800172
 20
-52.90899100377841
 30
0.0
 10
134.6896582424044
 20
-55.37348132706814
 30
0.0
 10
135.2177230974997
 20
-57.40438327768533
 30
0.0
 10
135.9368400400314
 20
-59.57629830610244
 30
0.0
 10
136.9097284549741
 20
-61.83520227133312
 30
0.0
 10
138.0870645846198
 20
-64.12654315900072
 30
0.0
 10
139.1659593923203
 20
-66.01394246306872
 30
0.0
 10
140.2661096846587
 20
-67.79253171680136
 30
0.0
 10
141.3520883250178
 20
-69.44167991357861
 30
0.0
 10
142.3856716460815
 20
-70.94041773935307
 30
0.0
 10
143.357089533556
 20
-72.29801330473629
 30
0.0
 10
144.2436333306085
 20
-73.50229417957715
 30
0.0
 10
145.0994516066896
 20
-74.6384943384139
 30
0.0
 10
145.695878650777
 20
-75.41472586814848
 30
0.0
 10
146.0587238730109
 20
-75.88287791548167
 30
0.0
 10
146.2790041215793
 20
-76.16554617490941
 30
0.0
 10
146.3108359495949
 20
-76.20625722663138
 30
0.0
 10
146.3295369747899
 20
-76.23017474728384
 30
0.0
  0
LINE
  5
D7
330
1F
100
AcDbEntity
  8
0
  6
Continuous
 62
     7
370
    25
100
AcDbLine
 10
146.3295369748
 20
-120.2301747473
 30
0.0
 11
82.3295369748
 21
-120.2301747473
 31
0.0
  0
LINE
  5
D8
330
1F
100
AcDbEntity
  8
0
  6
Continuous
 62
     7
370
    25
100
AcDbLine
 10
146.3295369748
 20
17.7698252527
 30
0.0
 11
82.3295369748
 21
17.7698252527
 31
0.0
  0
LINE
  5
D9
330
1F
100
AcDbEntity
  8
0
  6
Continuous
 62
     7
370
    25
100
AcDbLine
 10
210.3295369748
 20
-26.2301747473
 30
0.0
 11
210.3295369748
 21
-76.2301747473
 31
0.0
  0
INSERT
  5
E5
330
1F
100
AcDbEntity
  8
FORMAT
 62
     7
100
AcDbBlockReference
  2
SW_CENTERMARKSYMBOL_2
 10
114.3295369748
 20
9.7698252527
 30
0.0
  0
INSERT
  5
F1
330
1F
100
AcDbEntity
  8
FORMAT
 62
     7
100
AcDbBlockReference
  2
SW_CENTERMARKSYMBOL_3
 10
114.3295369748
 20
-112.2301747473
 30
0.0
  0
LINE
  5
F2
330
1F
100
AcDbEntity
  8
0
  6
Continuous
 62
     7
370
    25
100
AcDbLine
 10
345.9004524053
 20
-72.3173408852
 30
0.0
 11
394.9221181963
 21
-44.017735598
 31
0.0
  0
LINE
  5
F3
330
1F
100
AcDbEntity
  8
0
  6
Continuous
 62
     7
370
    25
100
AcDbLine
 10
369.9241498804
 20
-0.715292479
 30
0.0
 11
320.8994516577
 21
-29.0166483517
 31
0.0
  0
LINE
  5
F4
330
1F
100
AcDbEntity
  8
0
  6
Continuous
 62
     7
370
    25
100
AcDbLine
 10
321.5414519622
 20
-28.6460294647
 30
0.0
 11
281.7492148648
 21
-5.674459952
 31
0.0
  0
LINE
  5
F5
330
1F
100
AcDbEntity
  8
0
  6
Continuous
 62
     7
370
    25
100
AcDbLine
 10
379.3299506685
 20
-62.0066196677
 30
0.0
 11
371.5455156607
 21
-57.5127609922
 31
0.0
  0
LINE
  5
F6
330
1F
100
AcDbEntity
  8
0
  6
Continuous
 62
     7
370
    25
100
AcDbLine
 10
249.7518154204
 20
-61.1015871443
 30
0.0
 11
347.3325512242
 21
-117.4337468601
 31
0.0
  0
LINE
  5
F7
330
1F
100
AcDbEntity
  8
0
  6
Continuous
 62
     7
370
    25
100
AcDbLine
 10
278.4073693921
 20
-4.4221325267
 30
0.0
 11
278.4073693921
 21
22.1372824603
 31
0.0
  0
LINE
  5
F8
330
1F
100
AcDbEntity
  8
0
  6
Continuous
 62
     7
370
    25
100
AcDbLine
 10
264.4073693921
 20
22.1372824603
 30
0.0
 11
264.4073693921
 21
-8.0801732486
 31
0.0
  0
SPLINE
  5
F9
330
1F
100
AcDbEntity
  8
0
  6
Continuous
 62
     7
370
    25
100
AcDbSpline
210
0.0
220
0.0
230
1.0
 70
     8
 71
     3
 72
    34
 73
    30
 74
     0
 42
0.00000001
 43
0.00000001
 40
0.0
 40
0.0
 40
0.0
 40
0.0
 40
0.0286278189685877
 40
0.0572565151036664
 40
0.0868357437537904
 40
0.1164175267298396
 40
0.1450142260183088
 40
0.1736136390919092
 40
0.2321709018436845
 40
0.2703618686769842
 40
0.30855834187738
 40
0.3478488950561171
 40
0.3871416031449186
 40
0.4258323997425561
 40
0.4645192887110701
 40
0.5044096993507212
 40
0.5442821047139987
 40
0.5900000764149067
 40
0.6368397664038459
 40
0.682633190453539
 40
0.7299990391863449
 40
0.7572956968455329
 40
0.7845996365829375
 40
0.840690756671345
 40
0.8799190416049388
 40
0.9191543405411691
 40
0.959494627626553
 40
0.9998340818288052
 40
1.0
 40
1.0
 40
1.0
 40
1.0
 10
319.4906305127628
 20
-38.28647221907225
 30
0.0
 10
319.4925338107903
 20
-38.78143623126123
 30
0.0
 10
319.4963404651631
 20
-39.77137942151148
 30
0.0
 10
319.5273801567096
 20
-41.37825921652517
 30
0.0
 10
319.5780189118224
 20
-43.06514648947375
 30
0.0
 10
319.6502321019291
 20
-44.80684739467085
 30
0.0
 10
319.7426648694089
 20
-46.56668756008676
 30
0.0
 10
319.8944624846363
 20
-48.94562530688773
 30
0.0
 10
320.1081677769419
 20
-51.55199917980035
 30
0.0
 10
320.4044430961646
 20
-54.3330454790466
 30
0.0
 10
320.709631369512
 20
-56.68599860962039
 30
0.0
 10
321.0772664622993
 20
-59.01306142255743
 30
0.0
 10
321.5194753495739
 20
-61.28663165804204
 30
0.0
 10
322.0448027683995
 20
-63.47209617650773
 30
0.0
 10
322.6790493875179
 20
-65.57732075938212
 30
0.0
 10
323.4519724397783
 20
-67.59102628755036
 30
0.0
 10
324.4492785177187
 20
-69.57369679713274
 30
0.0
 10
325.7469293772766
 20
-71.45091958788844
 30
0.0
 10
327.4290669274038
 20
-73.08885277463995
 30
0.0
 10
329.4659849575028
 20
-74.33002149374084
 30
0.0
 10
331.4528207445508
 20
-74.99667742265845
 30
0.0
 10
333.2268421925347
 20
-75.29774348014533
 30
0.0
 10
335.1998775572027
 20
-75.43235900803117
 30
0.0
 10
337.4279985819298
 20
-75.28105156007828
 30
0.0
 10
339.840360823936
 20
-74.80207836095498
 30
0.0
 10
341.9284978953397
 20
-74.18102274832913
 30
0.0
 10
343.9483588467971
 20
-73.34521547541407
 30
0.0
 10
345.284918508808
 20
-72.71204998592229
 30
0.0
 10
345.8977214744556
 20
-72.3185920078733
 30
0.0
 10
345.900231638945
 20
-72.31698032467341
 30
0.0
  0
SPLINE
  5
FA
330
1F
100
AcDbEntity
  8
0
  6
Continuous
 62
     7
370
    25
100
AcDbSpline
210
0.0
220
0.0
230
1.0
 70
     8
 71
     3
 72
    16
 73
    12
 74
     0
 42
0.00000001
 43
0.00000001
 40
0.0
 40
0.0
 40
0.0
 40
0.0
 40
0.0404792150978293
 40
0.1623163633061048
 40
0.2841340129891009
 40
0.4105655863938023
 40
0.5369628170592184
 40
0.7046884376883193
 40
0.7909346353880806
 40
0.8771752395401688
 40
1.0
 40
1.0
 40
1.0
 40
1.0
 10
320.9109734198518
 20
-29.03704370050448
 30
0.0
 10
320.8663922530679
 20
-29.05519522982625
 30
0.0
 10
320.6876275994847
 20
-29.12798049062819
 30
0.0
 10
320.4455073771894
 20
-29.46074272780963
 30
0.0
 10
320.1683610940817
 20
-30.05566386285756
 30
0.0
 10
319.9448168935104
 20
-30.90844195956714
 30
0.0
 10
319.7462271735738
 20
-32.13971832691796
 30
0.0
 10
319.6191887243562
 20
-33.55877784379198
 30
0.0
 10
319.5447102489464
 20
-35.05779655012113
 30
0.0
 10
319.5005986062541
 20
-36.47897857533064
 30
0.0
 10
319.4943194706522
 20
-37.61756116371248
 30
0.0
 10
319.4906305127628
 20
-38.28647221907225
 30
0.0
  0
LWPOLYLINE
  5
FB
330
1F
100
AcDbEntity
  8
0
  6
Continuous
 62
     7
370
    25
100
AcDbPolyline
 90
       82
 70
   128
 43
0.0
 10
400.100803568
 20
-32.5716154363
 10
400.0476457757
 20
-30.9590349938
 10
399.8884920961
 20
-29.2947781191
 10
399.624299698
 20
-27.5888538491
 10
399.2566574657
 20
-25.851521813
 10
398.7877764428
 20
-24.0932305301
 10
398.2204765349
 20
-22.324554571
 10
397.5581695505
 20
-20.5561309611
 10
396.8048386816
 20
-18.7985952081
 10
395.9650145489
 20
-17.0625173387
 10
395.0437479533
 20
-15.3583383295
 10
394.0465795006
 20
-13.6963073137
 10
392.9795062793
 20
-12.0864199413
 10
391.8489457932
 20
-10.5383582644
 10
390.6616973661
 20
-9.0614325081
 10
389.4249012498
 20
-7.6645250776
 10
388.1459956816
 20
-6.3560371387
 10
386.8326721501
 20
-5.1438380916
 10
385.4928291376
 20
-4.0352182443
 10
384.1345246175
 20
-3.0368449667
 10
382.7659275932
 20
-2.1547225934
 10
381.395268968
 20
-1.3941563121
 10
380.0307920444
 20
-0.7597202578
 10
378.6807029469
 20
-0.2552300036
 10
377.3531212705
 20
0.1162803866
 10
376.0560312473
 20
0.3525766057
 10
374.7972337296
 20
0.4522375405
 10
373.5842992735
 20
0.4146638184
 10
372.4245226098
 20
0.240081412
 10
371.3248787717
 20
-0.0704597193
 10
370.2919811466
 20
-0.5150919448
 10
369.3320417025
 20
-1.0911411939
 10
368.4508336279
 20
-1.7951430387
 10
367.6536566121
 20
-2.6228635291
 10
366.9453049714
 20
-3.5693246569
 10
366.3300388159
 20
-4.6288342933
 10
365.8115584286
 20
-5.7950204228
 10
365.3929820117
 20
-7.0608694649
 10
365.0768269329
 20
-8.4187684543
 10
364.864994586
 20
-9.8605508268
 10
364.7587589558
 20
-11.3775455335
 10
364.7587589558
 20
-12.9606291899
 10
364.864994586
 20
-14.6002809445
 10
365.0768269329
 20
-16.2866397387
 10
365.3929820117
 20
-18.0095636123
 10
365.8115584286
 20
-19.7586906985
 10
366.3300388159
 20
-21.523501541
 10
366.9453049714
 20
-23.29338236
 10
367.6536566121
 20
-25.0576888838
 10
368.4508336279
 20
-26.8058103654
 10
369.3320417025
 20
-28.5272333965
 10
370.2919811466
 20
-30.2116051366
 10
371.3248787717
 20
-31.8487955756
 10
372.4245226098
 20
-33.4289584578
 10
373.5842992735
 20
-34.9425904976
 10
374.7972337296
 20
-36.3805885339
 10
376.0560312473
 20
-37.7343042771
 10
377.3531212705
 20
-38.9955963216
 10
378.6807029469
 20
-40.1568791086
 10
380.0307920444
 20
-41.2111685468
 10
381.395268968
 20
-42.1521240154
 10
382.7659275932
 20
-42.9740864976
 10
384.1345246175
 20
-43.6721126142
 10
385.4928291376
 20
-44.2420043541
 10
386.8326721501
 20
-44.6803343212
 10
388.1459956816
 20
-44.9844663476
 10
389.4249012498
 20
-45.1525713475
 10
390.6616973661
 20
-45.1836383177
 10
391.8489457932
 20
-45.0774804176
 10
392.9795062793
 20
-44.8347360935
 10
394.0465795006
 20
-44.4568652383
 10
395.0437479533
 20
-43.9461404116
 10
395.9650145489
 20
-43.3056331729
 10
396.8048386816
 20
-42.5391956078
 10
397.5581695505
 20
-41.6514371622
 10
398.2204765349
 20
-40.6476969198
 10
398.7877764428
 20
-39.5340114924
 10
399.2566574657
 20
-38.3170787154
 10
399.624299698
 20
-37.0042173656
 10
399.8884920961
 20
-35.6033231457
 10
400.0476457757
 20
-34.1228211983
 10
400.100803568
 20
-32.5716154363
  0
LWPOLYLINE
  5
FC
330
1F
100
AcDbEntity
  8
0
  6
Continuous
 62
     7
370
    25
100
AcDbPolyline
 90
       75
 70
   128
 43
0.0
 10
396.8481123746
 20
-30.6938767791
 10
396.7961462248
 20
-29.2512283916
 10
396.640622193
 20
-27.7589754794
 10
396.3826608331
 20
-26.2278697589
 10
396.0241207628
 20
-24.668942882
 10
395.5675852715
 20
-23.0934269525
 10
395.0163437079
 20
-21.5126735988
 10
394.37436778
 20
-19.9380721851
 10
393.6462829392
 20
-18.3809677505
 10
392.8373350534
 20
-16.8525792683
 10
391.9533526105
 20
-15.3639188125
 10
391.0007047245
 20
-13.9257122157
 10
389.9862552452
 20
-12.5483217895
 10
388.9173133042
 20
-11.2416716634
 10
387.8015806529
 20
-10.0151762815
 10
386.6470961704
 20
-8.8776725713
 10
385.4621779439
 20
-7.8373562728
 10
384.2553633365
 20
-6.9017228891
 10
383.035347475
 20
-6.0775136799
 10
381.8109206017
 20
-5.3706670916
 10
380.5909047402
 20
-4.78627597
 10
379.3840901328
 20
-4.3285508665
 10
378.1991719064
 20
-4.000789701
 10
377.0446874239
 20
-3.8053540002
 10
375.9289547725
 20
-3.7436518828
 10
374.8600128315
 20
-3.816127914
 10
373.8455633522
 20
-4.0222599023
 10
372.8929154662
 20
-4.3605626621
 10
372.0089330234
 20
-4.828598714
 10
371.1999851375
 20
-5.4229958478
 10
370.4719002967
 20
-6.1394714184
 10
369.8299243688
 20
-6.9728632029
 10
369.2786828052
 20
-7.9171665945
 10
368.8221473139
 20
-8.9655778655
 10
368.4636072436
 20
-10.1105431886
 10
368.2056458838
 20
-11.3438130627
 10
368.0501218519
 20
-12.6565017498
 10
367.9981557022
 20
-14.0391512979
 10
368.0501218519
 20
-15.4817996855
 10
368.2056458838
 20
-16.9740525977
 10
368.4636072436
 20
-18.5051583181
 10
368.8221473139
 20
-20.064085195
 10
369.2786828052
 20
-21.6396011245
 10
369.8299243688
 20
-23.2203544782
 10
370.4719002967
 20
-24.794955892
 10
371.1999851375
 20
-26.3520603265
 10
372.0089330234
 20
-27.8804488087
 10
372.8929154662
 20
-29.3691092646
 10
373.8455633522
 20
-30.8073158614
 10
374.8600128315
 20
-32.1847062876
 10
375.9289547725
 20
-33.4913564137
 10
377.0446874239
 20
-34.7178517955
 10
378.1991719064
 20
-35.8553555058
 10
379.3840901328
 20
-36.8956718042
 10
380.5909047402
 20
-37.831305188
 10
381.8109206017
 20
-38.6555143972
 10
383.035347475
 20
-39.3623609855
 10
384.2553633365
 20
-39.9467521071
 10
385.4621779439
 20
-40.4044772106
 10
386.6470961704
 20
-40.7322383761
 10
387.8015806529
 20
-40.9276740768
 10
388.9173133042
 20
-40.9893761942
 10
389.9862552452
 20
-40.916900163
 10
391.0007047245
 20
-40.7107681747
 10
391.9533526105
 20
-40.372465415
 10
392.8373350534
 20
-39.904429363
 10
393.6462829392
 20
-39.3100322292
 10
394.37436778
 20
-38.5935566586
 10
395.0163437079
 20
-37.7601648741
 10
395.5675852715
 20
-36.8158614826
 10
396.0241207628
 20
-35.7674502116
 10
396.3826608331
 20
-34.6224848884
 10
396.640622193
 20
-33.3892150144
 10
396.7961462248
 20
-32.0765263273
 10
396.8481123746
 20
-30.6938767791
  0
LWPOLYLINE
  5
FD
330
1F
100
AcDbEntity
  8
0
  6
Continuous
 62
     7
370
    25
100
AcDbPolyline
 90
       93
 70
   128
 43
0.0
 10
288.3779321406
 20
-20.325493759
 10
288.3251824089
 20
-18.5728186312
 10
288.1671791576
 20
-16.8892188278
 10
287.9046590706
 20
-15.2825440681
 10
287.538846138
 20
-13.7602854116
 10
287.0714459483
 20
-12.3295403308
 10
286.504637737
 20
-10.9969796198
 10
285.8410642257
 20
-9.7688162917
 10
285.0838193004
 20
-8.6507766109
 10
284.2364335865
 20
-7.6480733945
 10
283.3028579874
 20
-6.7653817077
 10
282.2874452634
 20
-6.0068170668
 10
281.1949297375
 20
-5.3759162501
 10
280.0304052212
 20
-4.8756208086
 10
278.7993012656
 20
-4.5082633505
 10
277.5073578455
 20
-4.2755566659
 10
276.1605985975
 20
-4.1785857408
 10
274.765302735
 20
-4.2178026983
 10
273.3279757713
 20
-4.393024691
 10
271.8553191883
 20
-4.703434753
 10
270.3541991907
 20
-5.1475856093
 10
268.8316146929
 20
-5.7234064236
 10
267.2946646867
 20
-6.4282124535
 10
265.7505151426
 20
-7.2587175678
 10
264.2063655984
 20
-8.2110495684
 10
262.6694155923
 20
-9.2807682438
 10
261.1468310945
 20
-10.4628860719
 10
259.6457110969
 20
-11.7518914735
 10
258.1730545139
 20
-13.1417745105
 10
256.7357275502
 20
-14.6260549066
 10
255.3404316877
 20
-16.1978122614
 10
253.9936724397
 20
-17.8497183165
 10
252.7017290196
 20
-19.5740711234
 10
251.4706250639
 20
-21.3628309533
 10
250.3061005477
 20
-23.2076577821
 10
249.2135850218
 20
-25.0999501755
 10
248.1981722978
 20
-27.030885393
 10
247.2645966987
 20
-28.9914605231
 10
246.4172109848
 20
-30.9725344595
 10
245.6599660595
 20
-32.9648705211
 10
244.9963925482
 20
-34.9591795175
 10
244.4295843369
 20
-36.9461630595
 10
243.9621841472
 20
-38.9165569125
 10
243.5963712145
 20
-40.861174191
 10
243.3338511276
 20
-42.7709481914
 10
243.1758478763
 20
-44.6369746658
 10
243.1230981446
 20
-46.4505533373
 10
243.1758478763
 20
-48.203228465
 10
243.3338511276
 20
-49.8868282685
 10
243.5963712145
 20
-51.4935030282
 10
243.9621841472
 20
-53.0157616847
 10
244.4295843369
 20
-54.4465067655
 10
244.9963925482
 20
-55.7790674765
 10
245.6599660595
 20
-57.0072308046
 10
246.4172109848
 20
-58.1252704854
 10
247.2645966987
 20
-59.1279737018
 10
248.1981722978
 20
-60.0106653886
 10
249.2135850218
 20
-60.7692300295
 10
250.3061005477
 20
-61.4001308462
 10
251.4706250639
 20
-61.9004262877
 10
252.7017290196
 20
-62.2677837458
 10
253.9936724397
 20
-62.5004904304
 10
255.3404316877
 20
-62.5974613555
 10
256.7357275502
 20
-62.558244398
 10
258.1730545139
 20
-62.3830224053
 10
259.6457110969
 20
-62.0726123433
 10
261.1468310945
 20
-61.628461487
 10
262.6694155923
 20
-61.0526406727
 10
264.2063655984
 20
-60.3478346428
 10
265.7505151426
 20
-59.5173295285
 10
267.2946646867
 20
-58.5649975279
 10
268.8316146929
 20
-57.4952788524
 10
270.3541991907
 20
-56.3131610244
 10
271.8553191883
 20
-55.0241556228
 10
273.3279757713
 20
-53.6342725857
 10
274.765302735
 20
-52.1499921896
 10
276.1605985975
 20
-50.5782348349
 10
277.5073578455
 20
-48.9263287798
 10
278.7993012656
 20
-47.2019759729
 10
280.0304052212
 20
-45.413216143
 10
281.1949297375
 20
-43.5683893142
 10
282.2874452634
 20
-41.6760969208
 10
283.3028579874
 20
-39.7451617033
 10
284.2364335865
 20
-37.7845865732
 10
285.0838193004
 20
-35.8035126368
 10
285.8410642257
 20
-33.8111765751
 10
286.504637737
 20
-31.8168675788
 10
287.0714459483
 20
-29.8298840368
 10
287.538846138
 20
-27.8594901837
 10
287.9046590706
 20
-25.9148729053
 10
288.1671791576
 20
-24.0050989049
 10
288.3251824089
 20
-22.1390724305
 10
288.3779321406
 20
-20.325493759
  0
LWPOLYLINE
  5
FE
330
1F
100
AcDbEntity
  8
0
  6
Continuous
 62
     7
370
    25
100
AcDbPolyline
 90
       13
 70
   128
 43
0.0
 10
385.9586679443
 20
-76.6576534747
 10
385.9059182127
 20
-74.904978347
 10
385.7479149613
 20
-73.2213785435
 10
385.4853948744
 20
-71.6147037839
 10
385.1195819417
 20
-70.0924451274
 10
384.652181752
 20
-68.6617000466
 10
384.0853735407
 20
-67.3291393355
 10
383.4218000295
 20
-66.1009760074
 10
382.6645551042
 20
-64.9829363266
 10
381.8171693903
 20
-63.9802331102
 10
380.8835937911
 20
-63.0975414235
 10
379.8681810672
 20
-62.3389767825
 10
379.3299506685
 20
-62.0066196677
  0
LWPOLYLINE
  5
FF
330
1F
100
AcDbEntity
  8
0
  6
Continuous
 62
     7
370
    25
100
AcDbPolyline
 90
       36
 70
   128
 43
0.0
 10
347.3325512242
 20
-117.4337468601
 10
347.8868363514
 20
-117.7322905619
 10
349.0513608677
 20
-118.2325860035
 10
350.2824648233
 20
-118.5999434616
 10
351.5744082434
 20
-118.8326501462
 10
352.9211674914
 20
-118.9296210713
 10
354.3164633539
 20
-118.8904041137
 10
355.7537903176
 20
-118.715182121
 10
357.2264469007
 20
-118.404772059
 10
358.7275668982
 20
-117.9606212027
 10
360.250151396
 20
-117.3848003884
 10
361.7871014022
 20
-116.6799943586
 10
363.3312509463
 20
-115.8494892442
 10
364.8754004905
 20
-114.8971572437
 10
366.4123504966
 20
-113.8274385682
 10
367.9349349944
 20
-112.6453207402
 10
369.436054992
 20
-111.3563153385
 10
370.908711575
 20
-109.9664323015
 10
372.3460385387
 20
-108.4821519054
 10
373.7413344013
 20
-106.9103945506
 10
375.0880936492
 20
-105.2584884955
 10
376.3800370693
 20
-103.5341356887
 10
377.611141025
 20
-101.7453758588
 10
378.7756655412
 20
-99.90054903
 10
379.8681810672
 20
-98.0082566365
 10
380.8835937911
 20
-96.0773214191
 10
381.8171693903
 20
-94.116746289
 10
382.6645551042
 20
-92.1356723525
 10
383.4218000295
 20
-90.1433362909
 10
384.0853735407
 20
-88.1490272945
 10
384.652181752
 20
-86.1620437526
 10
385.1195819417
 20
-84.1916498995
 10
385.4853948744
 20
-82.247032621
 10
385.7479149613
 20
-80.3372586207
 10
385.9059182127
 20
-78.4712321463
 10
385.9586679443
 20
-76.6576534747
  0
LWPOLYLINE
  5
100
330
1F
100
AcDbEntity
  8
0
  6
Continuous
 62
     7
370
    25
100
AcDbPolyline
 90
       82
 70
   128
 43
0.0
 10
283.4281846722
 20
-23.1829221504
 10
283.37502688
 20
-21.6317163884
 10
283.2158732003
 20
-20.151214441
 10
282.9516808022
 20
-18.750320221
 10
282.5840385699
 20
-17.4374588712
 10
282.115157547
 20
-16.2205260942
 10
281.5478576391
 20
-15.1068406669
 10
280.8855506547
 20
-14.1031004245
 10
280.1322197859
 20
-13.2153419789
 10
279.2923956531
 20
-12.4489044138
 10
278.3711290575
 20
-11.808397175
 10
277.3739606048
 20
-11.2976723484
 10
276.3068873835
 20
-10.9198014931
 10
275.1763268974
 20
-10.677057169
 10
273.9890784703
 20
-10.570899269
 10
272.752282354
 20
-10.6019662391
 10
271.4733767858
 20
-10.770071239
 10
270.1600532543
 20
-11.0742032655
 10
268.8202102418
 20
-11.5125332326
 10
267.4619057218
 20
-12.0824249725
 10
266.0933086974
 20
-12.7804510891
 10
264.7226500722
 20
-13.6024135712
 10
263.3581731486
 20
-14.5433690399
 10
262.0080840512
 20
-15.5976584781
 10
260.6805023747
 20
-16.7589412651
 10
259.3834123515
 20
-18.0202333096
 10
258.1246148338
 20
-19.3739490528
 10
256.9116803778
 20
-20.811947089
 10
255.751903714
 20
-22.3255791288
 10
254.6522598759
 20
-23.905742011
 10
253.6193622508
 20
-25.5429324501
 10
252.6594228067
 20
-27.2273041901
 10
251.7782147322
 20
-28.9487272213
 10
250.9810377164
 20
-30.6968487029
 10
250.2726860756
 20
-32.4611552267
 10
249.6574199201
 20
-34.2310360456
 10
249.1389395329
 20
-35.9958468882
 10
248.7203631159
 20
-37.7449739744
 10
248.4042080371
 20
-39.467897848
 10
248.1923756902
 20
-41.1542566422
 10
248.08614006
 20
-42.7939083968
 10
248.08614006
 20
-44.3769920532
 10
248.1923756902
 20
-45.8939867599
 10
248.4042080371
 20
-47.3357691324
 10
248.7203631159
 20
-48.6936681218
 10
249.1389395329
 20
-49.9595171638
 10
249.6574199201
 20
-51.1257032933
 10
250.2726860757
 20
-52.1852129298
 10
250.9810377164
 20
-53.1316740575
 10
251.7782147322
 20
-53.959394548
 10
252.6594228067
 20
-54.6633963927
 10
253.6193622508
 20
-55.2394456418
 10
254.6522598759
 20
-55.6840778673
 10
255.751903714
 20
-55.9946189987
 10
256.9116803778
 20
-56.169201405
 10
258.1246148338
 20
-56.2067751272
 10
259.3834123515
 20
-56.1071141924
 10
260.6805023747
 20
-55.8708179733
 10
262.0080840512
 20
-55.499307583
 10
263.3581731486
 20
-54.9948173289
 10
264.7226500722
 20
-54.3603812746
 10
266.0933086974
 20
-53.5998149932
 10
267.4619057218
 20
-52.7176926199
 10
268.8202102418
 20
-51.7193193424
 10
270.1600532543
 20
-50.610699495
 10
271.4733767858
 20
-49.398500448
 10
272.752282354
 20
-48.0900125091
 10
273.9890784703
 20
-46.6931050786
 10
275.1763268974
 20
-45.2161793223
 10
276.3068873835
 20
-43.6681176454
 10
277.3739606048
 20
-42.058230273
 10
278.3711290575
 20
-40.3961992571
 10
279.2923956531
 20
-38.692020248
 10
280.1322197859
 20
-36.9559423786
 10
280.8855506547
 20
-35.1984066255
 10
281.5478576391
 20
-33.4299830156
 10
282.115157547
 20
-31.6613070566
 10
282.5840385699
 20
-29.9030157736
 10
282.9516808022
 20
-28.1656837375
 10
283.2158732003
 20
-26.4597594675
 10
283.37502688
 20
-24.7955025929
 10
283.4281846722
 20
-23.1829221504
  0
ARC
  5
101
330
1F
100
AcDbEntity
  8
0
  6
Continuous
 62
     7
370
    25
100
AcDbCircle
 10
267.8680551064
 20
21.8184421275
 30
0.0
 40
3.475342396235982
100
AcDbArc
 50
113.9437806278
 51
174.7360784146
  0
LWPOLYLINE
  5
102
330
1F
100
AcDbEntity
  8
0
  6
Continuous
 62
     7
370
    25
100
AcDbPolyline
 90
       18
 70
   128
 43
0.0
 10
278.4073693921
 20
22.1372824603
 10
278.4062017793
 20
22.2110877742
 10
278.3130029215
 20
22.7985794709
 10
278.0726224741
 20
23.3719767699
 10
277.6901837293
 20
23.9190587033
 10
277.1738377047
 20
24.4281651695
 10
276.5345894195
 20
24.8884454481
 10
275.786063341
 20
25.2900894641
 10
274.9442130031
 20
25.6245368725
 10
274.0269809841
 20
25.8846595075
 10
273.053916492
 20
26.0649133068
 10
272.0457587072
 20
26.1614564735
 10
271.0239947625
 20
26.1722313577
 10
270.0104017824
 20
26.0970083115
 10
269.0265827415
 20
25.9373905834
 10
268.0935060347
 20
25.6967801482
 10
267.231058572
 20
25.3803051996
 10
266.4576219238
 20
24.9947108517
  0
ENDSEC
  0
SECTION
  2
OBJECTS
  0
DICTIONARY
  5
C
330
0
100
AcDbDictionary
281
     1
  3
ACAD_GROUP
350
D
  3
ACAD_LAYOUT
350
1A
  3
ACAD_MLINESTYLE
350
17
  3
ACAD_PLOTSETTINGS
350
19
  3
ACAD_PLOTSTYLENAME
350
E
  3
ACAD_SCALELIST
350
47
  3
DWGPROPS
350
103
  0
DICTIONARY
  5
D
102
{ACAD_REACTORS
330
C
102
}
330
C
100
AcDbDictionary
281
     1
  0
DICTIONARY
  5
1A
102
{ACAD_REACTORS
330
C
102
}
330
C
100
AcDbDictionary
281
     1
  3
Layout1
350
1E
  3
Layout2
350
26
  3
Model
350
22
  0
DICTIONARY
  5
17
102
{ACAD_REACTORS
330
C
102
}
330
C
100
AcDbDictionary
281
     1
  3
Standard
350
18
  0
DICTIONARY
  5
19
102
{ACAD_REACTORS
330
C
102
}
330
C
100
AcDbDictionary
281
     1
  0
ACDBDICTIONARYWDFLT
  5
E
102
{ACAD_REACTORS
330
C
102
}
330
C
100
AcDbDictionary
281
     1
  3
Normal
350
F
100
AcDbDictionaryWithDefault
340
F
  0
DICTIONARY
  5
47
102
{ACAD_REACTORS
330
C
102
}
330
C
100
AcDbDictionary
281
     1
  3
A0
350
48
  3
A1
350
49
  3
A2
350
4A
  3
A3
350
4B
  3
A4
350
4C
  3
A5
350
4D
  3
A6
350
4E
  3
A7
350
4F
  3
A8
350
50
  3
A9
350
51
  3
B0
350
52
  3
B1
350
53
  3
B2
350
54
  3
B3
350
55
  3
B4
350
56
  3
B5
350
57
  3
B6
350
58
  3
B7
350
59
  3
B8
350
5A
  3
B9
350
5B
  3
C0
350
5C
  3
C1
350
5D
  3
C2
350
5E
  3
C3
350
5F
  3
C4
350
60
  3
C5
350
61
  3
C6
350
62
  3
C7
350
63
  3
C8
350
64
  3
C9
350
65
  3
D0
350
66
  3
D1
350
67
  3
D2
350
68
  0
XRECORD
  5
103
102
{ACAD_REACTORS
330
C
102
}
330
C
100
AcDbXrecord
280
     1
  1
DWGPROPS COOKIE
  2

  3

  4

  6

  7

  8
b.kav
  9

300
=
301
=
302
=
303
=
304
=
305
=
306
=
307
=
308
=
309
=
 40
0.0
 41
2459741.482878009
 42
2459741.482878195
  1

 90
        0
  0
LAYOUT
  5
1E
102
{ACAD_REACTORS
330
1A
102
}
330
1A
100
AcDbPlotSettings
  1

  2
none_device
  4

  6

 40
0.0
 41
0.0
 42
0.0
 43
0.0
 44
0.0
 45
0.0
 46
0.0
 47
0.0
 48
0.0
 49
0.0
140
0.0
141
0.0
142
1.0
143
1.0
 70
   688
 72
     1
 73
     0
 74
     5
  7

 75
    16
147
1.0
148
0.0
149
0.0
100
AcDbLayout
  1
Layout1
 70
     1
 71
     1
 10
0.0
 20
0.0
 11
420.0
 21
297.0
 12
0.0
 22
0.0
 32
0.0
 14
1.0000000000E+20
 24
1.0000000000E+20
 34
1.0000000000E+20
 15
-1.0000000000E+20
 25
-1.0000000000E+20
 35
-1.0000000000E+20
146
0.0
 13
0.0
 23
0.0
 33
0.0
 16
1.0
 26
0.0
 36
0.0
 17
0.0
 27
1.0
 37
0.0
 76
     0
330
1B
  0
LAYOUT
  5
26
102
{ACAD_REACTORS
330
1A
102
}
330
1A
100
AcDbPlotSettings
  1

  2
none_device
  4

  6

 40
0.0
 41
0.0
 42
0.0
 43
0.0
 44
0.0
 45
0.0
 46
0.0
 47
0.0
 48
0.0
 49
0.0
140
0.0
141
0.0
142
1.0
143
1.0
 70
   688
 72
     1
 73
     0
 74
     5
  7

 75
    16
147
1.0
148
0.0
149
0.0
100
AcDbLayout
  1
Layout2
 70
     1
 71
     2
 10
0.0
 20
0.0
 11
0.0
 21
0.0
 12
0.0
 22
0.0
 32
0.0
 14
0.0
 24
0.0
 34
0.0
 15
0.0
 25
0.0
 35
0.0
146
0.0
 13
0.0
 23
0.0
 33
0.0
 16
1.0
 26
0.0
 36
0.0
 17
0.0
 27
1.0
 37
0.0
 76
     0
330
23
  0
LAYOUT
  5
22
102
{ACAD_REACTORS
330
1A
102
}
330
1A
100
AcDbPlotSettings
  1

  2
none_device
  4
Letter_(8.50_x_11.00_Inches)
  6

 40
6.35
 41
6.35
 42
6.35000508
 43
6.35000508
 44
215.9
 45
279.4
 46
0.0
 47
0.0
 48
0.0
 49
0.0
140
0.0
141
0.0
142
1.0
143
1.0
 70
  1712
 72
     1
 73
     0
 74
     0
  7

 75
     0
147
1.0
148
0.0
149
0.0
100
AcDbLayout
  1
Model
 70
     1
 71
     0
 10
0.0
 20
0.0
 11
279.4
 21
215.9
 12
0.0
 22
0.0
 32
0.0
 14
0.0
 24
0.0
 34
0.0
 15
279.4
 25
215.9
 35
0.0
146
0.0
 13
0.0
 23
0.0
 33
0.0
 16
1.0
 26
0.0
 36
0.0
 17
0.0
 27
1.0
 37
0.0
 76
     0
330
1F
331
29
  0
MLINESTYLE
  5
18
102
{ACAD_REACTORS
330
17
102
}
330
17
100
AcDbMlineStyle
  2
Standard
 70
     0
  3

 62
   256
 51
90.0
 52
90.0
 71
     2
 49
0.5
 62
   256
  6
BYLAYER
 49
-0.5
 62
   256
  6
BYLAYER
  0
ACDBPLACEHOLDER
  5
F
102
{ACAD_REACTORS
330
E
102
}
330
E
  0
SCALE
  5
48
102
{ACAD_REACTORS
330
47
102
}
330
47
100
AcDbScale
 70
     0
300
1:1
140
1.0
141
1.0
290
     1
  0
SCALE
  5
49
102
{ACAD_REACTORS
330
47
102
}
330
47
100
AcDbScale
 70
     0
300
1:2
140
1.0
141
2.0
290
     0
  0
SCALE
  5
4A
102
{ACAD_REACTORS
330
47
102
}
330
47
100
AcDbScale
 70
     0
300
1:4
140
1.0
141
4.0
290
     0
  0
SCALE
  5
4B
102
{ACAD_REACTORS
330
47
102
}
330
47
100
AcDbScale
 70
     0
300
1:5
140
1.0
141
5.0
290
     0
  0
SCALE
  5
4C
102
{ACAD_REACTORS
330
47
102
}
330
47
100
AcDbScale
 70
     0
300
1:8
140
1.0
141
8.0
290
     0
  0
SCALE
  5
4D
102
{ACAD_REACTORS
330
47
102
}
330
47
100
AcDbScale
 70
     0
300
1:10
140
1.0
141
10.0
290
     0
  0
SCALE
  5
4E
102
{ACAD_REACTORS
330
47
102
}
330
47
100
AcDbScale
 70
     0
300
1:16
140
1.0
141
16.0
290
     0
  0
SCALE
  5
4F
102
{ACAD_REACTORS
330
47
102
}
330
47
100
AcDbScale
 70
     0
300
1:20
140
1.0
141
20.0
290
     0
  0
SCALE
  5
50
102
{ACAD_REACTORS
330
47
102
}
330
47
100
AcDbScale
 70
     0
300
1:30
140
1.0
141
30.0
290
     0
  0
SCALE
  5
51
102
{ACAD_REACTORS
330
47
102
}
330
47
100
AcDbScale
 70
     0
300
1:40
140
1.0
141
40.0
290
     0
  0
SCALE
  5
52
102
{ACAD_REACTORS
330
47
102
}
330
47
100
AcDbScale
 70
     0
300
1:50
140
1.0
141
50.0
290
     0
  0
SCALE
  5
53
102
{ACAD_REACTORS
330
47
102
}
330
47
100
AcDbScale
 70
     0
300
1:100
140
1.0
141
100.0
290
     0
  0
SCALE
  5
54
102
{ACAD_REACTORS
330
47
102
}
330
47
100
AcDbScale
 70
     0
300
2:1
140
2.0
141
1.0
290
     0
  0
SCALE
  5
55
102
{ACAD_REACTORS
330
47
102
}
330
47
100
AcDbScale
 70
     0
300
4:1
140
4.0
141
1.0
290
     0
  0
SCALE
  5
56
102
{ACAD_REACTORS
330
47
102
}
330
47
100
AcDbScale
 70
     0
300
8:1
140
8.0
141
1.0
290
     0
  0
SCALE
  5
57
102
{ACAD_REACTORS
330
47
102
}
330
47
100
AcDbScale
 70
     0
300
10:1
140
10.0
141
1.0
290
     0
  0
SCALE
  5
58
102
{ACAD_REACTORS
330
47
102
}
330
47
100
AcDbScale
 70
     0
300
100:1
140
100.0
141
1.0
290
     0
  0
SCALE
  5
59
102
{ACAD_REACTORS
330
47
102
}
330
47
100
AcDbScale
 70
     0
300
1/128" = 1'-0"
140
0.0078125
141
12.0
290
     0
  0
SCALE
  5
5A
102
{ACAD_REACTORS
330
47
102
}
330
47
100
AcDbScale
 70
     0
300
1/64" = 1'-0"
140
0.015625
141
12.0
290
     0
  0
SCALE
  5
5B
102
{ACAD_REACTORS
330
47
102
}
330
47
100
AcDbScale
 70
     0
300
1/32" = 1'-0"
140
0.03125
141
12.0
290
     0
  0
SCALE
  5
5C
102
{ACAD_REACTORS
330
47
102
}
330
47
100
AcDbScale
 70
     0
300
1/16" = 1'-0"
140
0.0625
141
12.0
290
     0
  0
SCALE
  5
5D
102
{ACAD_REACTORS
330
47
102
}
330
47
100
AcDbScale
 70
     0
300
3/32" = 1'-0"
140
0.09375
141
12.0
290
     0
  0
SCALE
  5
5E
102
{ACAD_REACTORS
330
47
102
}
330
47
100
AcDbScale
 70
     0
300
1/8" = 1'-0"
140
0.125
141
12.0
290
     0
  0
SCALE
  5
5F
102
{ACAD_REACTORS
330
47
102
}
330
47
100
AcDbScale
 70
     0
300
3/16" = 1'-0"
140
0.1875
141
12.0
290
     0
  0
SCALE
  5
60
102
{ACAD_REACTORS
330
47
102
}
330
47
100
AcDbScale
 70
     0
300
1/4" = 1'-0"
140
0.25
141
12.0
290
     0
  0
SCALE
  5
61
102
{ACAD_REACTORS
330
47
102
}
330
47
100
AcDbScale
 70
     0
300
3/8" = 1'-0"
140
0.375
141
12.0
290
     0
  0
SCALE
  5
62
102
{ACAD_REACTORS
330
47
102
}
330
47
100
AcDbScale
 70
     0
300
1/2" = 1'-0"
140
0.5
141
12.0
290
     0
  0
SCALE
  5
63
102
{ACAD_REACTORS
330
47
102
}
330
47
100
AcDbScale
 70
     0
300
3/4" = 1'-0"
140
0.75
141
12.0
290
     0
  0
SCALE
  5
64
102
{ACAD_REACTORS
330
47
102
}
330
47
100
AcDbScale
 70
     0
300
1" = 1'-0"
140
1.0
141
12.0
290
     0
  0
SCALE
  5
65
102
{ACAD_REACTORS
330
47
102
}
330
47
100
AcDbScale
 70
     0
300
1-1/2" = 1'-0"
140
1.5
141
12.0
290
     0
  0
SCALE
  5
66
102
{ACAD_REACTORS
330
47
102
}
330
47
100
AcDbScale
 70
     0
300
3" = 1'-0"
140
3.0
141
12.0
290
     0
  0
SCALE
  5
67
102
{ACAD_REACTORS
330
47
102
}
330
47
100
AcDbScale
 70
     0
300
6" = 1'-0"
140
6.0
141
12.0
290
     0
  0
SCALE
  5
68
102
{ACAD_REACTORS
330
47
102
}
330
47
100
AcDbScale
 70
     0
300
1'-0" = 1'-0"
140
12.0
141
12.0
290
     0
  0
ENDSEC
  0
EOF
